Alkaline Trio

My Friend Peter Bass Tabs



More from Alkaline Trio

Alkaline Trio Tabs
Alkaline Trio Chords
Alkaline Trio Bass
Alkaline Trio Lyrics




Great Song and it's not too hard to play! the strumming is a little
off but

listen to the song for that and the timing. Also, i know that the

break/pre-chorus is a little bit off. just play around with
it and have fun!

Intro:
g|--------------------------------|
d|--------------------------------|
a|-7-7777777777-------------------|
e|--------------9-999999-7-777777-|

g|---------------------------------------|
d|---------------------------------------|
a|-7-777777-6h7-7-7777-------------------|
e|---------------------9-999999-7-777777-|

g|----------------------------------------|
d|----------------------------------------|
a|-7-777777-6h7-7-6h7-7-------------------|
e|----------------------9-999999-7-777777-|

Pre-Verse:
g|-----------------------|
d|--------7--------------|
a|-----7-----7-----------|
e|-5-5--5--5---5---77\55-|

Verse:
g|--------------------------------|
d|--------------------------------|
a|--------77----------------------|
e|------------------99---------77-|
"i don't care..."

g|---------------------------------|
d|---------------------------------|
a|-6h7-7-77777-6h7-77777-----------|
e|------------------------99----77-|

g|------------------------|
d|------------------------|
a|-77777777---------------|
e|----------999999-777777-|

Break:
g|-----------------------|
d|--------7--------------|
a|-----7-----7-----------|
e|-5-5--5--5---5---77\55-|

g|--------------------------------|
d|--------------------------------|
a|-7-7777777777-------------------|
e|--------------9-999999-7-777777-|

g|---------------------------------------|
d|---------------------------------------|
a|-7-777777-6h7-7-7777-------------------|
e|---------------------9-999999-7-777777-|

Verse:
g|--------------------------------|
d|--------------------------------|
a|--------77----------------------|
e|------------------99---------77-|
"i don't care..."

g|---------------------------------|
d|---------------------------------|
a|-6h7-7-77777-6h7-77777-----------|
e|------------------------99----77-|

g|------------------------|
d|------------------------|
a|-77777777---------------|
e|----------999999-777777-|

Pre-Chorus:
g|-----------------------|
d|--------7--------------|
a|-----7-----7-----------|
e|-5-5--5--5---5---77\55-|

Chorus:
g|--------------------|
d|--------------------|
a|-------------9-9-9--|
e|-0000-5555-77-7-7-7-|

g||--------------------||
d||--------------------||
a||--------------------||
e||-0000-5555-77777777-||

Break:
g|-----------------------|
d|--------7--------------|
a|-----7-----7-----------|
e|-5-5--5--5---5---77\55-|

g|--------------------------------|
d|--------------------------------|
a|-7-7777777777-------------------|
e|--------------9-999999-7-777777-|

g|---------------------------------------|
d|---------------------------------------|
a|-7-777777-6h7-7-7777-------------------|
e|---------------------9-999999-7-777777-|

Verse:
g|--------------------------------|
d|--------------------------------|
a|--------77----------------------|
e|------------------99---------77-|
"i don't care..."

g|---------------------------------|
d|---------------------------------|
a|-6h7-7-77777-6h7-77777-----------|
e|------------------------99----77-|

g|------------------------|
d|------------------------|
a|-77777777---------------|
e|----------999999-777777-|

Pre-Chorus:
g|-----------------------|
d|--------7--------------|
a|-----7-----7-----------|
e|-5-5--5--5---5---77\55-|

Chorus:
g|--------------------|
d|--------------------|
a|-------------9-9-9--|
e|-0000-5555-77-7-7-7-|

g||--------------------||
d||--------------------||
a||--------------------||
e||-0000-5555-77777777-||

End:
g|----|
d|----|
a|----|
e|-0~-|



Get this song at amazon.com      Ebay     Ringtones Ringtones  


Learn to play: Songwriting, Piano, Harmonica, Guitar
Also available at Muzikum: Alkaline Trio - My Friend Peter lyrics

Related Alkaline Trio Bass Tabs

Time To Waste-piano Part bass
Blue Caroline bass
Cop bass
Mercy Me bass
Another Inocent Girl bass
My Little Needle bass
Adeledia bass
Warbrain bass
Cringe bass
Steamer Trunk bass
Fck You Aurora bass
Stupid Kid bass
F**k You Aurora bass
Maybe Ill Catch Fire bass
Keep Em Coming bass
Jaked On Green Beers bass
Your Neck bass
Metro bass
Continental bass
Wash Away bass


Guitar Tabs









All tabs are property and copyright of their owners. All tabs provided for educational purposes only. Privacy Policy, DMCA