Alkaline Trio

Mr Chainsaw Tabs



More from Alkaline Trio

Alkaline Trio Tabs
Alkaline Trio Chords
Alkaline Trio Bass
Alkaline Trio Lyrics



Tuning - Standard



Intro:

|-----------------------------------------------------------|

|-------------10--------------------------------------------|

|-9-9-9-9-9-9--9-9-9-9-9---7-x-x--7-7-7-7-7--7-x-x--7-7-7-7-|

|-7-7-7-7-7-7--7-7-7-7-7---7-x-x--7-7-7-7-7--7-x-x--7-7-7-7-| x2

|-0-0-0-0-0-0--0-0-0-0-0--/5-x-x-/5-5-5-5-5-/5-x-x-/5-5-5-5-|

|-----------------------------------------------------------|



|-------------------------------------------|

|-------------------------------------------|

|-11-11-11-11-11-11-11-11---9-9-9-9-9-9-9-9-|

|-11-11-11-11-11-11-11-11---9-9-9-9-9-9-9-9-|

|--9--9--9--9--9--9--9--9---7-7-7-7-7-7-7-7-|

|-------------------------------------------|



|----------------------------------------------------|

|----------------------------------------------------|

|--7-x-x--7-7-7-7-7--7-x-x--7-7-7-7--9-9-9-9-9-9-9-9-|

|--7-x-x--7-7-7-7-7--7-x-x--7-7-7-7--9-9-9-9-9-9-9-9-|

|-/5-x-x-/5-5-5-5-5-/5-x-x-/5-5-5-5--7-7-7-7-7-7-7-7-|

|----------------------------------------------------|



Verse 1:

|-----------------------------------------------------------|

|-------------10--------------------------------------------|

|-9-9-9-9-9-9--9-9-9-9-9---7-x-x--7-7-7-7-7--7-x-x--7-7-7-7-|

|-7-7-7-7-7-7--7-7-7-7-7---7-x-x--7-7-7-7-7--7-x-x--7-7-7-7-| x2

|-0-0-0-0-0-0--0-0-0-0-0--/5-x-x-/5-5-5-5-5-/5-x-x-/5-5-5-5-|

|-----------------------------------------------------------|



|-------------------------------------------|

|-------------------------------------------|

|-11-11-11-11-11-11-11-11---9-9-9-9-9-9-9-9-|

|-11-11-11-11-11-11-11-11---9-9-9-9-9-9-9-9-|

|--9--9--9--9--9--9--9--9---7-7-7-7-7-7-7-7-|

|-------------------------------------------|



|----------------------------------------------------|

|----------------------------------------------------|

|--7-x-x--7-7-7-7-7--7-x-x--7-7-7-7--9-9-9-9-9-9-9-9-|

|--7-x-x--7-7-7-7-7--7-x-x--7-7-7-7--9-9-9-9-9-9-9-9-|

|-/5-x-x-/5-5-5-5-5-/5-x-x-/5-5-5-5--7-7-7-7-7-7-7-7-|

|----------------------------------------------------|



Play all of verse 1 twice, then go to the chorus



Chorus:

|--------------------------------------------|

|--------------------------------------------|

|-2~-----------7-7-7-7-7-7-7-9-9-9-9-9-9-9-9-|

|-2~--2~--4~---7-7-7-7-7-7-7-9-9-9-9-9-9-9-9-|

|-0~--2~--4~---5-5-5-5-5-5-5-7-7-7-7-7-7-7-7-|

|-----0~--2~---------------------------------|

Play all of the chorus twice, then play the intro again.

After the intro, play the second verse, which is the same as the first,

and then the chorus again. After that chorus, the intro again. And now for the outro



|---------------------------------------------------|

|---------------------------------------------------|

|-9-9-9-9-9-9-9-9-7-7-7-7-7-7-7-7-9-9-9-9-9-9-9-9-9-| x4

|-7-7-7-7-7-7-7-7-7-7-7-7-7-7-7-7-9-9-9-9-9-9-9-9-9-|

|-0-0-0-0-0-0-0-0-5-5-5-5-5-5-5-5-7-7-7-7-7-7-7-7-7-|

|---------------------------------------------------|

End on:

|---|

|---|

|---|

|-2-|

|-2-|

|-0-|



If anyones confused by the song order, it goes like this:



Intro

verse x2

Chorus

Intro

Verse x2

Chorus

Intro

Outro

Added by tabs-database.com and our distinguished partners
Get this song at amazon.com      Ebay     Ringtones Ringtones  


Learn to play: Songwriting, Piano, Harmonica, Guitar
Also available at Muzikum: Alkaline Trio - Mr. Chainsaw lyrics

Related Alkaline Trio Tabs

I'm Dying Tomorrow tabs
Private Eye2 tabs
My Standard Break From Life tabs
We Can Never Break Up tabs
I Was A Prayer tabs
Sleepyhead tabs
Stupid Kid Intro tabs
Tuck Me In tabs
While You're Waiting tabs
Blue Carolina tabs
Death Bed tabs
While Youre Waiting tabs
The Poison tabs
Snake Oil Tanker tabs
Weve Had Enough With Order tabs
Hell Yes tabs
Im Dying Tomorrow tabs
The Metro tabs
Private Eye tabs
Dead End Road tabs


Guitar Tabs









All tabs are property and copyright of their owners. All tabs provided for educational purposes only. Privacy Policy, DMCA