Alkaline Trio

Mr Chainsaw Chords, Tabs



More from Alkaline Trio

Alkaline Trio Tabs
Alkaline Trio Chords
Alkaline Trio Bass
Alkaline Trio Lyrics

#-----------------------------PLEASE NOTE-------------------------------------#
#This OLGA file is the author's own work and represents their interpretation  #
#of the song. You may only use this file for private study, scholarship, or   #
#research. Remember to view this file in Courier, or some other monospaced    #
#font. See http://www.olga.net/faq/ for more information.                     #
#-----------------------------------------------------------------------------#



Subject: a/alkaline_trio/mr_chainsaw.tab

Song:      Mr. Chainsaw
Band:      Alkaline Trio
Album:     From Here To Infirmiry
Tabbed by: Daniel Tate (punkindrublic.cjb.net)

Hey there, the intro to this cool song is a combination of bass and guitar, but i'm sure this one is correct... it sounds very accurate, trust me.  The timing's really easy so i've missed it out, just play along with the CD until it sounds right.  Less of the crap, here it is:

Intro/Verse  
e|-------------------------------------------------|
b|-------------------------------------------------|
g|-------------------------------------------------|
d|-11-11-11-11-11-11-11-11-12-12-12-11-11-11-9--9--|
a|-0--0--0--0--0--0--0--0--0--0--0--0--0--0--0--0--|
E|-------------------------------------------------|

e|-------------------------------------------------|
b|-------------------------------------------------|    This and the above
g|-------------------------------------------------|    X2
d|--7-7-7-7-7-7-7-7--6/7-7-7-7-7-7-7---------------|   
a|--5-5-5-5-5-5-5-5--4/5-5-5-5-5-5-5---------------|
E|-------------------------------------------------|

 








e|------------------------------------------------|
b|------------------------------------------------|
g|------------------------------------------------|
d|--4-------9--------7-7-7-7-7-7-------9-9-9-9-9-9|
a|--4--X16--7--X16---4-4/5-5-5-5--X3---7-7-7-7-7-7|
E|--2---------------------------------------------|

Chorus
e|--------------------------------------|
b|--------------------------------------|
g|-----------------------7-------9------|
d|--7------2------4------7--X8---9--X8--|
a|--7------2------4------5-------7------|
E|--5------0------2---------------------|

Ending 1
e|----------------------|
b|----------------------|
g|--9-------------------|
d|--9-X32--7------9-----|
a|--7------7-X16--9-X16-|
E|---------5------7-----|

Ending 2
e|-----------|
b|-----------|
g|--------7--|
d|--9-----7--|
a|--7-X8--5--|
E|--5--------|

Order:

 








Intro/Verse  X3
Chorus       X2
Intro/Verse  X3
Chorus       X2
Intro/Verse  X1
Ending 1     X4
Ending 2     X1
Get this song at amazon.com      Ebay     Ringtones Ringtones  


Learn to play: Songwriting, Piano, Harmonica, Guitar
301 Moved Permanently

Moved Permanently

The document has moved here.

Related Alkaline Trio Chords

Sundials chords
Sadie Acoustic chords
The Metro chords
Private Eye chords
Blue In The Face chords
My Little Needle chords
Continental chords
Goodbye Forever chords
One Last Dance chords
San Francisco chords
Time To Waste Acoustic chords
Steamer Trunk chords
97 chords
Only Love chords
Crawl chords
Midnight Blue chords
Blue Carolina chords
My Standard Break From Life chords
I Pessimist chords
Radio chords


Guitar Tabs




All tabs are property and copyright of their owners. All tabs provided for educational purposes only. Privacy Policy, DMCA