Alkaline Trio

Madame Me Bass Tabs



More from Alkaline Trio

Alkaline Trio Tabs
Alkaline Trio Chords
Alkaline Trio Bass
Alkaline Trio Lyrics



Alkaline Trio
Madame Me
joshmosh182

Riff1
G|-------------------------
E|------------------------- X3
A|--------22222222-33333333
D|00000000-----------------

Riff2
G|--------------------------
E|-------------------------- X1
A|55555555-33333333-22222222
D|--------------------------

Riff3
G|-------------------
E|-------------------
A|--22222222-33333333
D|0~-----------------

Riff4
G|--------------------------
E|----22--------------------
A|--20--20-22222222-33333333
D|00------------------------

Riff2 X1
Riff3 X1
Riff4 X2
Riff2 X1

Riff5
G|----------------------------------
E|---------------------------------- X2
A|-----------------55555555-33333333
D|33333333-22222222-----------------

Riff6
G|--7----7-5-4-----------------
E|55-5-44---------------------- X1
A|------------55555555-33333333
D|-----------------------------

Riff7
G|---------------------------------
E|--------------------------------- X2
A|5555555555555555-3333333333333333
D|---------------------------------

Riff1 X2
Riff3 X1
Riff4 X2
Riff2 X1
Riff5 X2
Riff6 X1

Riff8
G|----------------------------------
E|---------------------------------- X1
A|44444444-33333333-22222222--------
D|--------------------------00000000

Riff9
G|-------------------------
E|------------------------- X3
A|--------55555555-22222222
D|33333333-----------------

Riff10
G|--------------------------------------------------
E|--------------------------------------------------
A|--------55555555--------55555555-22222222-33333333
D|33333333--------33333333--------------------------

Riff5 X1
Riff6 X1

Ending
G|----------------------------
E|----------------------------
A|55555555-33333333-22222222--
D|--------------------------3~

First tab, plz rate,rock on!!



Get this song at amazon.com      Ebay     Ringtones Ringtones  


Learn to play: Songwriting, Piano, Harmonica, Guitar
More Alkaline Trio lyrics available at Muzikum

Related Alkaline Trio Bass Tabs

Mercy Me bass
Emma bass
Blue Carolina bass
Fatally Yours bass
Maybe Ill Catch Fire bass
Cringe bass
Clavicle bass
Goodbye Forever bass
You Aurora bass
Jaked On Green Beers bass
Weak Week bass
One Hundred Stories bass
Armagedon bass
Hating Every Minute bass
Armageddon bass
Continental bass
Your Neck bass
Hell Yes bass
Time To Waste-piano Part bass
Donner Party (all Night) bass


Guitar Tabs









All tabs are property and copyright of their owners. All tabs provided for educational purposes only. Privacy Policy, DMCA