Alkaline Trio

Keep Em Coming Bass Tabs



More from Alkaline Trio

Alkaline Trio Tabs
Alkaline Trio Chords
Alkaline Trio Bass
Alkaline Trio Lyrics



Alkaline Trio- keep em’ coming

Intro/verse:

G -----------------------------
D -----------------------------
A ---------------------55555555
E 555575555557555555755--------

Between verse

G ---------------------------------------------------
D ---------------------------------------------------
A --7---7---7---7-------12-------12-------12-------12
E 00-000—000-000-0-1010---101010---101010----101010--


In second verse(play fast):

G 44446666444422224444
D --------------------
A --------------------
E --------------------

Chorus:

G ----------------------------------------------
D ----------------------------------------------
A ---7---7---7---7----12-------12-------12------
E 55--555—555-555—1010--101010---101010---101010

G -------------------44-446677664422---------------
D -------------------------------------------------
A ---------10s12---------------------55-555-555-555
E 10101212-----------------------------------------

(“ baaack”)(play fast)
G ----------------
D –-7--7--7-7----7
A -0-00-00—0-00—00
E ---------------- etc.

Then

G --------------------
D --------------------
A 55557777999912121212
E --------------------
Please rate this.thanks for lookin

Taken from The BassMasta -- http://www.tabs-database.com



Get this song at amazon.com      Ebay     Ringtones Ringtones  


Learn to play: Songwriting, Piano, Harmonica, Guitar
301 Moved Permanently

Moved Permanently

The document has moved here.

Related Alkaline Trio Bass Tabs

Blue Carolina bass
My Friend Peter bass
Hating Every Minute bass
Continental bass
Armageddon bass
Metro bass
Radio bass
Old School Reasons bass
Cop bass
Sorry About That bass
Mercy Me bass
Adeledia bass
Youve Got So Far To Go bass
Every Thug Needs A Lady(revised) bass
Stupid Kidd bass
Steamer Trunk bass
Amegeddon bass
I Lied My Face Off bass
Madame Me bass
Hell Yes bass


Guitar Tabs




All tabs are property and copyright of their owners. All tabs provided for educational purposes only. Privacy Policy, DMCA