Alkaline Trio

Jaked On Green Beers Chords, Tabs



More from Alkaline Trio

Alkaline Trio Tabs
Alkaline Trio Chords
Alkaline Trio Bass
Alkaline Trio Lyrics

#-----------------------------PLEASE NOTE-------------------------------------#
#This OLGA file is the author's own work and represents their interpretation  #
#of the song. You may only use this file for private study, scholarship, or   #
#research. Remember to view this file in Courier, or some other monospaced    #
#font. See http://www.olga.net/faq/ for more information.                     #
#-----------------------------------------------------------------------------#



Subject: a/alkaline_trio/jaked_on_green_beers.tab

Author/Artist: Alkaline Trio
Title: Jaked On Green Beers
Album: Atticus Clothing Comp
Transcribed by: Jim Taone
Email: j_bro124@hotmail.com

great song, must say i enjoy the quicker pace of it...
hopefully a sign of things to come on next album...

Intro
----------------------------|
----------------------------|
-11--------8--------4-------|
-11--------8--------4-------|
-9---------6--------2-------|
----------------------------|

Verse
----------------------------------------------------------------|
----------------------------------------------------------------|
-11-11-11-11----4-4-4---6-6-6----11-11-11-11----8-8-8---4-4-4---|
-11-11-11-11----4-4-4---6-6-6----11-11-11-11----8-8-8---4-4-4---|
-9--9--9--9-----2-2-2---4-4-4----9--9--9--9-----6-6-6---2-2-2---|
----------------------------------------------------------------|

Riff 1
------------------------------------------------|
------------------------------------------------|
-11-11-11-11-11--11-11-11-11---6-6-6---4-4-4----|
-11-11-11-11-11--x--x--x--x----6-6-6---4-4-4----|
-9--9--9--9--9---9--9--9--9----4-4-4---2-2-2----|
------------------------------------------------|

Riff 2
----------------------------------------------|
----------------------------------------------|
----------------------------6-8-------4/64---|
-------4-------4/64--------------------------|
----------------------6-6-6-----2-2-2---------|
-2-2-2---2-2-2--------------------------------|

Break Down (listen to cd for timing on these)
------------------------------------------|
------------------------------------------|
------------------------------------------|
------------------------------------------|
-9---8/9-----8/9---8/9--8/9--8/9----------|
------------------------------------------|

 








Outro Part 1
---------------------------|
---------------------------|
---------8-------4---------|
-4-------8-------4---------|
-4-------6-------2---------|
-2-------------------------|



Outro Part 2
---------------------------------------------|
---------------------------------------------|
-11-11-11-11--10-10--13-13-13--11-11-11-11---|
-x--x--x--x---x--x---x--x--x---x--x--x--x----|
-9--9--9--9---8--8---11-11-11--9--9--9--9----|
---------------------------------------------|

---------------------------------------------|
---------------------------------------------|
-11-11-11-11--10-10-13-13-11-11-10-10-11-11--|
-x--x--x--x---x--x--x--x--x--x--x--x--x--x---|
-9--9--9--9---8--8--11-11-9--9--8--8--9--9---|
---------------------------------------------|

End note:

------|
------|
------|
--4---|
--4---|
--2---|

Songflow:
Intro 2x
Verse 2x
Riff 1
Verse 2x
Riff 2 2x
Verse
Breakdown
Verse 2x
Outro Part 1 6x
Outro Part 2 4x
End on given note

Questions, comments, corrections... e-mail me at j_bro124@hotmail.com

 








Get this song at amazon.com      Ebay     Ringtones Ringtones  


Learn to play: Songwriting, Piano, Harmonica, Guitar
301 Moved Permanently

Moved Permanently

The document has moved here.

Related Alkaline Trio Chords

Young Lover chords
Enjoy Your Day chords
Time To Waste Acoustic chords
Continental chords
Steamer Trunk chords
Jaked On Green Beers chords
I Pessimist chords
Cringe chords
Goodbye Forever chords
Blue In The Face chords
Sadie Acoustic chords
If You Had A Bad Time chords
Blue Carolina chords
Private Eye chords
Broken Wing chords
Only Love chords
Radio chords
Sadie chords
My Little Needle chords
Midnight Blue chords


Guitar Tabs




All tabs are property and copyright of their owners. All tabs provided for educational purposes only. Privacy Policy, DMCA