Alkaline Trio

If We Never Go Inside Tabs



More from Alkaline Trio

Alkaline Trio Tabs
Alkaline Trio Chords
Alkaline Trio Bass
Alkaline Trio Lyrics



IF WE NEVER GO INSIDE by Alkaline Trio. Album: Good Mourning (2003)
One of Dan's best songs ever i think! Watch out for the timing jumps in
Bridge2, some chords are only played twice.
:
e--:---------------:---------------:---------------:----------------|
B-------------------------------------------------------------------|
G-----------------------------------*---------------#---#---#---#---|
D--666777666777224466677766677722449--------*------2---4---6---7----|
A--000000000000000044444444444444447-------9-------0---0---0---0----|
E------------------------------------------7------------------------|
:
e-------------------| e-----------------------------------|
B-------------------| B-----------------------------------|
G-------------------| G---*---*---#-#-#-#--*---*----------| #=play 4X
D--6667776667772244-| D--6---9---2-4-6-7--6---9----*---*--| muted
A--0000000000000000-| A--4---7---0-0-0-0--4---7---9---7---|
E--mmmmmmmmmmmmmmmm-| E---------------------------7---5---|
:
e-------------------------------------|
B-------------------------------------|
G---*---*---#-#-#-#--*---*---!-!-!-!--| !=play 4X
D--9---4---2-4-6-7--9---4---2-4-6-7---| muted
A--7---2---0-0-0-0--7---2---0-0-0-0---|
E-------------------------------------|
:
Then play pre-verse !w/o muting!
:
e-------------------------------------------------------------------|
B-------*---#-----------*---#---------------#-------!---------------|
G---*--4---2--------*--4---2--------#------6-------4----------------|
D--2---4---2-------2---4---2-------2-------6-------4----------------|
A--2---2---0-------2---2---0-------2-------4-------2----------------|
E--0---------------0---------------0--------------------------------|
:
Then play introX1, verse, pre-chorus & chorusX2.
:
e--:---------------:----------------|
B---#-------*---*---*---*---*---*---|
G--9-----811---9---9--11--13--14----|
D-----------------------------------|
A--7-----6-9---7---7---9--11--12----|
E-----------------------------------|
:
e--:---------------:---------------:---------------:---------------:--------|
B---------------------------------------------------------------------------|
G---*---*---#-#-#-!-*---*---#-#-#-#-*---*---#-#-#-!-*---*---#-#-#-#-"-------|
D--6---9---2-4-6-7-6---9---2-4-6-7-6---9---2-4-6-7-6---9---2-4-6-7-4--------|
A--4---7---0-0-0-0-4---7---0-0-0-0-4---7---0-0-0-0-4---7---0-0-0-0-2--------|
E--m---m---m-m-m-m-m---m---m-m-m-m-m---m---m-m-m-m-m---m---m-m-m-m-m--------|
:


Get this song at amazon.com      Ebay     Ringtones Ringtones  


Learn to play: Songwriting, Piano, Harmonica, Guitar
Also available at Muzikum: Alkaline Trio - If We Never Go Inside lyrics

Related Alkaline Trio Tabs

Stupid Kid tabs
Steamer Trunk Bass tabs
Goodbye Forever Bass tabs
The Metro tabs
Sleepy Head tabs
Wash Away tabs
For Your Lungs Only tabs
Private Eye (live) tabs
Sadie tabs
Settle For Satin tabs
Death Bed tabs
Private I tabs
I'm Dying Tomorrow tabs
Youre Dead tabs
All On Black tabs
Goodbye Forever tabs
Private Eye Bass tabs
Maybe Ill Catch Fire tabs
In Your Wake tabs
Song For Julie tabs


Guitar Tabs









All tabs are property and copyright of their owners. All tabs provided for educational purposes only. Privacy Policy, DMCA