Alkaline Trio

Hell Yes Bass Tabs



More from Alkaline Trio

Alkaline Trio Tabs
Alkaline Trio Chords
Alkaline Trio Bass
Alkaline Trio Lyrics




I was surprised to see that no one had tabbed a correct version
of Hell Yes! this is a really

awesome song! the bass is a little easy but it's awesome none-the-less.
ALK3 is dope!

okay, strumming is a little off but if you listen to the song for
that and the timing then you should be good to go!
e-mail me with any questions or comments you may have. cheers!

Intro pt. I:
g|----------------------|
d|----------------------|
a|-7~---------------4~--|
e|----------------------|

Intro pt. II:
g|---------------------|---------------------|
d|----------7777-66-44-|----------99-77-66-4-|
a|-77777777------------|-44444444------------|
e|---------------------|---------------------|


Verse pt. I:
g||---------------------------------------||
d||--------------9999--77777777-6666-4444-||
a||-777777777777--------------------------||
e||---------------------------------------||

Verse pt. II:
g|-----------------------------------------------|
d|----------------------------77777777-6666-4444-|
a|-7777-6h7-6h7-7777-6h7-6h7---------------------|
e|-----------------------------------------------|

Verse pt. III:
g|----------------------------------------|
d|--------------9999--77777777------------|
a|-777777777777-----------------2222-0000-|
e|----------------------------------------|

Break:
g||---------------------|---------------------||
d||----------7777-66-44-|----------99-77-66-4-||
a||-77777777------------|-44444444------------||
e||---------------------|---------------------||

Verse pt. I:
g||---------------------------------------||
d||--------------9999--77777777-6666-4444-||
a||-777777777777--------------------------||
e||---------------------------------------||

Verse pt. II:
g|-----------------------------------------------|
d|----------------------------77777777-6666-4444-|
a|-7777-6h7-6h7-7777-6h7-6h7---------------------|
e|-----------------------------------------------|

Verse pt. III:
g|----------------------------------------|
d|--------------9999--77777777------------|
a|-777777777777-----------------2222-0000-|
e|----------------------------------------|

Chorus:
g||------------------------------------||
d||------------------------------------||
a||-7777777777777777-44444444-22222222-||
e||------------------------------------||

Verse pt. I:
g||---------------------------------------||
d||--------------9999--77777777-6666-4444-||
a||-777777777777--------------------------||
e||---------------------------------------||

Verse pt. II:
g|-----------------------------------------------|
d|----------------------------77777777-6666-4444-|
a|-7777-6h7-6h7-7777-6h7-6h7---------------------|
e|-----------------------------------------------|

Verse pt. III:
g|----------------------------------------|
d|--------------9999--77777777------------|
a|-777777777777-----------------2222-0000-|
e|----------------------------------------|


Chorus:
g||------------------------------------||
d||------------------------------------||
a||-7777777777777777-44444444-22222222-||
e||------------------------------------||

*Bridge:
g|--------------------|--------------------|
d|---------2---2--4-2-|---------4---4--4-2-|
a|-00000000-00--00----|-22222222-22--22----|
e|--------------------|--------------------|

g|----------------------|---------------------|
d|--------2--6-6-4-4-2--|-----4-4--9-9-7-7-6--|
a|-0000-00-0--0---0---0-|-2222-2-2--0---0---0-|
e|----------------------|---------------------|

g|----------------------|----------------------|
d|--------2--6-6-4-4-2--|-----4-4---777-666-44-|
a|-0000-00-0--0---0---0-|-2222-2-2-------------|
e|----------------------|----------------------|

*random riffs that can be played as the bridge.

Outro pt. I:
g||---------------------|---------------------||
d||----------7777-66-44-|----------99-77-66-4-||
a||-77777777------------|-44444444------------||
e||---------------------|---------------------||

Outro pt. II:
g||------------------------------------||
d||------------------------------------||
a||-7777777777777777-44444444-22222222-||
e||------------------------------------||

g|-------------------------------------|
d|------------------------------4-4-4--|
a|-77777777777777777-44444444-22-2-2-2-|
e|-------------------------------------|

g|----------------------------------------|
d|----------------------------------------|
a|-777777776/776/776/77-44444444-22222222-|
e|----------------------------------------|

Outro pt. III
g|--------------|
d|--------------|
a|-0~--------7~-|
e|--------------|



Get this song at amazon.com      Ebay     Ringtones Ringtones  


Learn to play: Songwriting, Piano, Harmonica, Guitar
Also available at Muzikum: Alkaline Trio - Hell Yes lyrics

Related Alkaline Trio Bass Tabs

This Could Be Love bass
Youve Got So Far To Go bass
Warbrain bass
Dead End Road bass
Mr Chainsaw bass
Cop bass
Queen Of Pain bass
My Friend Peter bass
Another Inocent Girl bass
Mercy Me bass
Emma bass
Radio Perfect bass
Adeledia bass
F*ck You Aurora bass
Blue Caroline bass
Sorry About That bass
Trucks And Trains bass
Old School Reasons bass
Clavicle bass
Another Innocent Girl bass


Guitar Tabs









All tabs are property and copyright of their owners. All tabs provided for educational purposes only. Privacy Policy, DMCA