Alkaline Trio

Goodbye Forever Tabs



More from Alkaline Trio

Alkaline Trio Tabs
Alkaline Trio Chords
Alkaline Trio Bass
Alkaline Trio Lyrics

The opening song on "Lied" and self/titled is very powerful...
Just listen to the emotion in Matt's voice this song is a
must-know for any Alk3 fan...
jim


Intro/Verse
----------------------------------|
----------------------------------|
--9-9-9-9-9-9---------------------|
--7-7-7-7-7-7--6-6-6-6-6-6-6-6-6--|
--0-0-0-0-0-0--4-4-4-4-4-4-4-4-4--|
----------------------------------|

----------------------------------|
----------------------------------|
--9-9-9-9-9-9---------------------|
--7-7-7-7-7-7--6-6-6-6-6-6-6/7-7--|
--0-0-0-0-0-0--4-4-4-4-4-4-3/5-5--|
----------------------------------|

--------------------------------------------------------|
--------------------------------------------------------|
--9-9-9-9-9-9----------------------4--x\--2-2-2--4-4-4--|
--7-7-7-7-7-7--6-6-6-6-6-6-6-6-6---4--x\--2-2-2--4-4-4--|
--0-0-0-0-0-0--4-4-4-4-4-4-4-4-4---2--x\--0-0-0--2-2-2--|
--------------------------------------------------------|


Chorus
--------------------------------------|
--------------------------------------|
--6-6-6-6-6---------------------------|
--x-x-x-x-x---6-6-6-6-6--7-7-7-7-7-7--|
--4-4-4-4-4---6-6-6-6-6--7-7-7-7-7-7--|
--------------4-4-4-4-4--5-5-5-5-5-5--|

Bridge
-----------------------|
-----------------------|
--9-9-9-9--8/9-9-9-9---|
--x-x-x-x--x-x-x-x-x---|
--7-7-7-7--6/7-7-7-7---|
-----------------------|


Songflow:
Intro
Verse 2x
Chorus 3x
Verse
Chorus 3x
Bridge 7x
Chorus 3x
Get this song at amazon.com      Ebay     Ringtones Ringtones  


Learn to play: Songwriting, Piano, Harmonica, Guitar
Also available at Muzikum: Alkaline Trio - Goodbye Forever lyrics

Related Alkaline Trio Tabs

Hell Yes tabs
Back To Hell. tabs
Crawl tabs
Mercy Me Acoustic tabs
Weve Had Enough With Order tabs
Continental tabs
Poison tabs
97 Live Bass tabs
Wash Away tabs
Death Bed tabs
Radio tabs
Private Eye Intro tabs
Goodbye Forever tabs
We Can Never Break Up tabs
We've Had Enough tabs
Donner Party All Night Bass tabs
You Aurora tabs
Bloodied Up tabs
Ninety Seven tabs
Clavicle tabs


Guitar Tabs









All tabs are property and copyright of their owners. All tabs provided for educational purposes only. Privacy Policy, DMCA