Alkaline Trio

Goodbye Forever Bass Tabs



More from Alkaline Trio

Alkaline Trio Tabs
Alkaline Trio Chords
Alkaline Trio Bass
Alkaline Trio Lyrics



Band: Alkaline Trio

Song: Goodbye Forever

Album: Alkaline Trio

Standard Tuning: EADG



Intro (x1)

G|--------------------------|

D|--------------66----66----|

A|-11\-44444444----44----44-|

E|--------------------------|



G|------------6\------------6\------------66----------|

D|------9-7-6---------9-7-6---------66----------66----|

A|-00-0----------00-0----------4444----44----44----44-|

E|----------------------------------------------------|



G|------------6\------------6\-------------------|

D|------9-7-6---------9-7-6-------------66666666-|

A|-00-0----------00-0----------44444444----------|

E|-----------------------------------------------|



Pre Verse/Pre Chorus (x1)

G|-------------------------------------------|

D|----------99999999----77-66----------------|

A|-------------------00-------99----99-77-66-|

E|-77777777----------------------77----------|



Verse (x1)

G|------------6\------------6\------------66----------|

D|------9-7-6---------9-7-6---------66----------66----|

A|-00-0----------00-0----------4444----44----44----44-|

E|----------------------------------------------------|



G|------------6\------------6\----------------------------|

D|------9-7-6---------9-7-6-------------------------------|

A|-00-0----------00-0-----------444444-6-7--6-7-9-7-6-----|

E|----------------------------------------------------9-7-|



End Verse (x1)

G|-------------------------------66----------|

D|------9\------9-7-6------66----------66----|

A|-00-0----00-0-------4444----44----44----44-|

E|-------------------------------------------|



Pre Verse/Pre Chorus (x1)



Interlude (x1)

G|-------------------|

D|-------------------|

A|----------77777777-|

E|-00000000----------|



Verse (x1)



End Verse (x1)



Pre Verse/Pre Chorus (x1)



Chorus (x1)

x2

G|----------------66------------------------|------------66-----------------------|

D|----------66-------------------------7777-|------66----------66-----------------|

A|-44444444----44----44------6666-----------|-4444----44----44----44------7777----|

E|----------------------4444------5555------|------------------------5555------7~-|



Interlude (x1)



Verse (x1)



End Verse (x1)



Pre Verse/Pre Chorus (x1)



Chorus (x1)



Solo (x1)

G|------------------------------66--------------------------------|

D|------------------------66----------66--------------------------|

A|----------77777777-4444----44----44----44----------9999------00-|

E|-00000000---------------------------------77777777------7777----|



G|------------------------------------------------------------------|

D|------------------------------------------------------------------|

A|-/12-12-11-11-12/16-/12-12-11-11-12/16----------14-14----11-11----|

E|---------------------------------------00000000-------00-------00-|



G|---------------------------------------------------------------|

D|--------------------------------------------------7~-7/9-7-6---|

A|-444444-6-7--6-7-9-7-6-----00000000-------66-77-0------------9-|

E|-----------------------9-7----------77-99----------------------|



G|------------------------------------6666----------------4444----------------2222-|

D|--------------------------6666----------------4444----------------2222-----------|

A|------2--------2---44-4------44-4------22-2------22-2------00-0------00-0--------|

E|-00-0---0-000-0---0--------------------------------------------------------------|



Chorus (x1)



End on

G|----|

D|----|

A|----|

E|-0~-|Added by tabs-database.com and our distinguished partners
Get this song at amazon.com      Ebay     Ringtones Ringtones  


Learn to play: Songwriting, Piano, Harmonica, Guitar
More Alkaline Trio lyrics available at Muzikum

Related Alkaline Trio Tabs

Donner Party All Night Bass tabs
Good Bye Forever tabs
Another Innocent Girl tabs
You've Got So Far To Go tabs
Sorry About That tabs
Blue In The Face tabs
Crawl tabs
Time To Waste tabs
Lucky Smoke Rings tabs
Standard Break From Life tabs
Dethbed Bass tabs
My Standard Break From Life tabs
Blue In The Face Bass tabs
Keep Em Coming tabs
Goodbye tabs
Wash Away tabs
Goodbye Forever Bass tabs
Fatally Yours tabs
I Was A Prayer tabs
Armageddon tabs


Guitar Tabs









All tabs are property and copyright of their owners. All tabs provided for educational purposes only. Privacy Policy, DMCA