Alkaline Trio

Fuck You Aurora Bass Tabs



More from Alkaline Trio

Alkaline Trio Tabs
Alkaline Trio Chords
Alkaline Trio Bass
Alkaline Trio Lyrics



Fuck You Aurora - Alkaline Trio

I took Jason Aarts' original tab and played around with it.
It should be a little easier to understand. It's not perfect, but close.
- Mike Gerard (wayward_son45@hotmail.com)


Intro/Interlude:
1 2 3 4 1 2 3 4 1 2 3 4 1 2 3 4
G|-----------------------------------------------------------------
D|----------------------------------------------------------------- x2
A|-----------------0-0-0-0-2-2-3-5-2-2-2-2-2-2-2-2-3-3-3-3-3-3-3-3-
E|-3-3-3-3-3-3-3-3-------------------------------------------------

Verse:
1 2 3 4 1 2 3 4 1 2 3 4 1 2 3 4
G|-----------------------------------------------------------------
D|---------5-5-------------7-7-9-9---------4-4--------------------- x4
A|-----------------0-0---0---------2-2---2-----2-2-3-3-3-3-3-3-3-3-
E|-3-3---3-----3-3-------------------------------------------------

Pre Chorus:
1 2 3 4 1 2 3 4 1 2 3 4 1 2 3 4
G|-----------------------------------------------------------------
D|----------------------------------------------------------------- x1
A|-5-5-5-5-5-5-5-5-5-5-5-5-5-5-5-5-3-3-3-3-3-3-3-3-3-3-3-3-3-3-3-3-
E|-----------------------------------------------------------------

1 2 3 4 1 2 3 4 1 2 3 4 1 2 3 4
G|-----------------------------------------------------------------
D|----------------------------------------------------------------- x1
A|-5-5-5-5-5-5-5-5-5-5-5-5-5-5-5-5-3-3-3-3-3-3-3-3-5-5-5-5-5-5-5-5-
E|-----------------------------------------------------------------

Intro/Interlude x2

Verse x4

Pre Chorus x1

Chorus:
1 2 3 4 1 2 3 4 1 2 3 4 1 2 3 4
G|-----------------------------------------------------------------
D|----------------------------------------------------------------- x3
A|-----------------3-3-3-3-3-3-3-3-5-5-5-5-5-5-5-5-3-3-3-3-3-3-3-3-
E|-3-3-3-3-3-3-3-3-------------------------------------------------

End of Chorus:
1 2 3 4 1 2 3 4 1 2 3 4 1 2 3 4
G|-----------------------------------------------------------------
D|----------------------------------------------------------------- x1
A|-5-5-5-5-5-5-5-5-5-5-5-5-5-5-5-5-3-3-3-3-3-3-3-3-5-5-5-5-3-3-3-3-
E|-----------------------------------------------------------------

Intro/Interlude x2

Verse x4

Pre Chorus x1

Chorus x3

End of Chorus x1

End:
1 2 3 4
G|----------------
D|----------------
A|----------------
E|-3--------------






Get this song at amazon.com      Ebay     Ringtones Ringtones  


Learn to play: Songwriting, Piano, Harmonica, Guitar
Also available at Muzikum: Alkaline Trio - Fuck You Aurora lyrics

Related Alkaline Trio Bass Tabs

Clavicle bass
Old School Reasons bass
Hating Every Minute bass
Continental bass
Dead End Road bass
We Ve Had Enough bass
Mercy Me bass
Radio bass
Burn bass
Cringe bass
F*ck You Aurora bass
5-3-10-4 bass
I Lied My Face Off bass
Tuck Me In bass
Metro bass
Nose Over Tail bass
You Aurora bass
Stupid Kidd bass
Every Thug Needs A Lady(revised) bass
Sorry About That bass


Guitar Tabs









All tabs are property and copyright of their owners. All tabs provided for educational purposes only. Privacy Policy, DMCA