Alkaline Trio

For Your Lungs Only Bass Tabs



More from Alkaline Trio

Alkaline Trio Tabs
Alkaline Trio Chords
Alkaline Trio Bass
Alkaline Trio Lyrics



One last trip to the Trio's achieves

G--------------------------10--10------10---10---
D----------------------------10--10-------10--10-
A------3333-----------8888----------8888---------
E-5555------3333-3333----------------------------

G------------------------------------------
D--------------------33-00-3-0--33-00-3----
A------3333--------------------3---------3-
E-5555------3333-3333----------------------

G------------------------------------------
D--------------------3333-3333-3333-3333---
A------3333--------------------------------
E-5555------3333-3333----------------------

G-----------------------------------------
D-----------------------------------------
A------3333-------------------------------
E-5555------3333-3333-1111-1111-1111-1111-

G-----------------------------------------------------------------------
D-3320------5-5-5-3320-------------3320------5-5-5--3322----------------
A-----32-----5-5-5-----32---------------32-----5-5-5-----5533------0022-
E-------3333-------------5555-5555----------3333----------------1133----

Enjoi

Taken from The BassMasta -- http://www.tabs-database.com



Get this song at amazon.com      Ebay     Ringtones Ringtones  


Learn to play: Songwriting, Piano, Harmonica, Guitar
Also available at Muzikum: Alkaline Trio - For Your Lungs Only lyrics

Related Alkaline Trio Bass Tabs

Hating Every Minute bass
Private Eye E A D G bass
Queen Of Pain bass
Clavicle bass
My Friend Peter bass
Emma bass
Sadie bass
F*ck You Aurora bass
The Metro bass
Blue Carolina bass
Stupid Kidd bass
Burn bass
Another Innocent Girl bass
Continental bass
Stupid Kid bass
Keep Em Coming bass
Fck You Aurora bass
Tuck Me In bass
Private Eye bass
Snake Oil Tankers bass


Guitar Tabs









All tabs are property and copyright of their owners. All tabs provided for educational purposes only. Privacy Policy, DMCA