Alkaline Trio

F**k You Aurora Bass Tabs



More from Alkaline Trio

Alkaline Trio Tabs
Alkaline Trio Chords
Alkaline Trio Bass
Alkaline Trio Lyrics




find an error and ill give you a dollar, i really think this is 100% correct,
i play it like this all the time and never sounds off. corrections and money
requests to imnotmark@gmail.com

G :----------------------|-----------------|----------------| x1
D :----------------------|-----------------|--------2-2-----|
A :----------------------|-----------------|0-0-0-0-----3-0-|
E :----------12-----|3-3-3-3-3-3-3-3-|----------------|

G :----------------|----------------|----------------|----------------| x5
D :----------------|----------------|----------------|--------2-2-----|
A :2-2-2-2-2-2-2-2-|3-3-3-3-3-3-3-3-|----------------|0-0-0-0-----3-0-|
E :----------------|----------------|3-3-3-3-3-3-3-3-|----------------|

G :----------------|----------------|----------------|----------------| x2
D :----------------|----------------|----------------|----------------|
A :2-2-2-2-2-2-2-2-|3-3-3-3-3-3-3-3-|5-5-5-5-5-5-5-5-|5-5-5-5-5-5-5-5-|
E :----------------|----------------|----------------|----------------|

G :----------------|----------------|----------------|----------------| x1
D :----------------|----------------|----------------|--------2-2-----|
A :3-3-3-3-3-3-3-3-|5-5-5-5-3-3-3-3-|----------------|0-0-0-0-----3-0-|
E :----------------|----------------|3-3-3-3-3-3-3-3-|----------------|

G :----------------|----------------|----------------|----------------| x5
D :----------------|----------------|----------------|--------2-2-----|
A :2-2-2-2-2-2-2-2-|3-3-3-3-3-3-3-3-|----------------|0-0-0-0-----3-0-|
E :----------------|----------------|3-3-3-3-3-3-3-3-|----------------|

G :----------------|----------------|----------------|----------------| x1
D :----------------|----------------|----------------|----------------|
A :2-2-2-2-2-2-2-2-|3-3-3-3-3-3-3-3-|5-5-5-5-5-5-5-5-|5-5-5-5-5-5-5-5-|
E :----------------|----------------|----------------|----------------|

G :----------------|----------------|----------------|----------------| x1
D :----------------|----------------|----------------|----------------|
A :3-3-3-3-3-3-3-3-|3-3-3-3-3-3-3-3-|5-5-5-5-5-5-5-5-|5-5-5-5-5-5-5-5-|
E :----------------|----------------|----------------|----------------|

G :----------------|----------------|----------------|----------------| x1
D :----------------|----------------|----------------|----------------|
A :3-3-3-3-3-3-3-3-|5-5-5-5-3-3-3-3-|----------------|3-3-3-3-3-3-3-3-|
E :----------------|----------------|3-3-3-3-3-3-3-3-|----------------|

G :----------------|----------------|----------------|----------------| x2
D :----------------|----------------|----------------|----------------|
A :5-5-5-5-5-5-5-5-|3-3-3-3-3-3-3-3-|----------------|3-3-3-3-3-3-3-3-|
E :----------------|----------------|3-3-3-3-3-3-3-3-|----------------|

G :----------------|----------------|----------------|----------------| x1
D :----------------|----------------|----------------|----------------|
A :5-5-5-5-5-5-5-5-|3-3-3-3-3-3-3-3-|5-5-5-5-5-5-5-5-|5-5-5-5-5-5-5-5-|
E :----------------|----------------|----------------|----------------|

G :----------------|----------------|----------------|----------------| x1
D :----------------|----------------|----------------|--------2-2-----|
A :3-3-3-3-3-3-3-3-|5-5-5-5-3-3-3-3-|----------------|0-0-0-0-----3-0-|
E :----------------|----------------|3-3-3-3-3-3-3-3-|----------------|

G :----------------|----------------|----------------|----------------| x5
D :----------------|----------------|----------------|--------2-2-----|
A :2-2-2-2-2-2-2-2-|3-3-3-3-3-3-3-3-|----------------|0-0-0-0-----3-0-|
E :----------------|----------------|3-3-3-3-3-3-3-3-|----------------|

G :----------------|----------------|----------------|----------------| x1
D :----------------|----------------|----------------|----------------|
A :2-2-2-2-2-2-2-2-|3-3-3-3-3-3-3-3-|5-5-5-5-5-5-5-5-|5-5-5-5-5-5-5-5-|
E :----------------|----------------|----------------|----------------|

G :----------------|----------------|----------------|----------------| x1
D :----------------|----------------|----------------|----------------|
A :3-3-3-3-3-3-3-3-|3-3-3-3-3-3-3-3-|5-5-5-5-5-5-5-5-|5-5-5-5-5-5-5-5-|
E :----------------|----------------|----------------|----------------|

G :----------------|----------------|----------------|----------------| x1
D :----------------|----------------|----------------|----------------|
A :3-3-3-3-3-3-3-3-|5-5-5-5-3-3-3-3-|----------------|3-3-3-3-3-3-3-3-|
E :----------------|----------------|3-3-3-3-3-3-3-3-|----------------|

G :----------------|----------------|----------------|----------------| x2
D :----------------|----------------|----------------|----------------|
A :5-5-5-5-5-5-5-5-|3-3-3-3-3-3-3-3-|----------------|3-3-3-3-3-3-3-3-|
E :----------------|----------------|3-3-3-3-3-3-3-3-|----------------|

G :----------------|----------------|----------------|----------------| x1
D :----------------|----------------|----------------|----------------|
A :5-5-5-5-5-5-5-5-|3-3-3-3-3-3-3-3-|5-5-5-5-5-5-5-5-|5-5-5-5-5-5-5-5-|
E :----------------|----------------|----------------|----------------|

G :----------------|----------------|----------------|----------------| x1
D :----------------|----------------|----------------|----------------|
A :3-3-3-3-3-3-3-3-|5-5-5-5-3-3-3-3-|----------------|----------------|
E :----------------|----------------|3---------------|----------------|



Get this song at amazon.com      Ebay     Ringtones Ringtones  


Learn to play: Songwriting, Piano, Harmonica, Guitar
More Alkaline Trio lyrics available at Muzikum

Related Alkaline Trio Bass Tabs

Wash Away bass
F*ck You Auoura bass
Weak Week bass
My Friend Peter bass
All On Black bass
Blue Caroline bass
Sorry About That bass
Nose Over Tail bass
Cop bass
Adeledia bass
Im Dying Tomorrow bass
Warbrain bass
Private Eye bass
The Poison bass
Fatally Yours bass
Weve Had Enough bass
Stupid Kidd bass
Tuck Me In bass
Fck You Aurora bass
Steamer Trunk bass


Guitar Tabs









All tabs are property and copyright of their owners. All tabs provided for educational purposes only. Privacy Policy, DMCA