Alkaline Trio

F*ck You Aurora Bass Tabs



More from Alkaline Trio

Alkaline Trio Tabs
Alkaline Trio Chords
Alkaline Trio Bass
Alkaline Trio Lyrics




F*ck you Aurora
Alkaline Trio

This is my first tab so if you find any mistakes just say. Cheers.

Intro x 2

G|--------------------------------------------------------------------|
D|--------------------------77-99-----------------------------------|
A|-----------------0-0-0-0-------2-2--2-2--2-2--3-3--3-3--3-3-|
E|-3-3--3-3--3-3---------------------------------------------------|


Verse x 4

G|-------------------------------------4-----4----4-----5-----5----|
D|-----5-----5--------------77-99----------------------------------|
A|-----------------0-0-0-0-------2-2--2-2--2-2--3-3--3-3--3-3-|
E|-3-3--3-3--3-3---------------------------------------------------|

Pre-Chorus x 1

G|------7----7-----7---7-----7-----7----7-----7----5-----5----5-----5----5-----5----5---5-|
D|------------------------------------------------------------------------------------------------|
A|-5-5--5-5--5-5--5-5--5-5--5-5--5-5--5-5--3-3--3-3--3-3--3-3--3-3--3-3--3-3--3-3-|
E|------------------------------------------------------------------------------------------------|

G|-----7-----7----7-----7----7----7-----7-----7-----5----5----5-----5----7-----7----7----7-|
D|-------------------------------------------------------------------------------------------------|
A|-5-5--5-5--5-5--5-5--5-5--5-5--5-5--5-5--3-3--3-3--3-3--3-3--5-5--5-5--5-5--5-5--|
E|-------------------------------------------------------------------------------------------------|


Intro x 2

G|--------------------------------------------------------------------|
D|--------------------------77-99-----------------------------------|
A|-----------------0-0-0-0-------2-2--2-2--2-2--3-3--3-3--3-3-|
E|-3-3--3-3--3-3---------------------------------------------------|


Verse x 4

G|-------------------------------------4-----4----4-----5-----5----|
D|----5-----5--------------77-99-----------------------------------|
A|-----------------0-0-0-0-------2-2--2-2--2-2--3-3--3-3--3-3-|
E|-3-3--3-3--3-3---------------------------------------------------|


Pre-Chorus x 1

G|------7----7-----7---7-----7-----7----7-----7----5-----5----5-----5----5-----5----5---5-|
D|------------------------------------------------------------------------------------------------|
A|-5-5--5-5--5-5--5-5--5-5--5-5--5-5--5-5--3-3--3-3--3-3--3-3--3-3--3-3--3-3--3-3-|
E|------------------------------------------------------------------------------------------------|

G|-----7-----7----7-----7----7----7-----7-----7-----5----5----5-----5----7-----7----7----7-|
D|-------------------------------------------------------------------------------------------------|
A|-5-5--5-5--5-5--5-5--5-5--5-5--5-5--5-5--3-3--3-3--3-3--3-3--5-5--5-5--5-5--5-5--|
E|-------------------------------------------------------------------------------------------------|

Chorus x 1

G|--------------------------------------------------------------------------------|
D|--------------------------------------------------------------------------------|
A|---------------------3-3-3-3-3-3-3-3-5-5-5-5-5-5-5-5-3-3-3-3-3-3-3-3|
E|-3-3-3-3-3-3-3-3------------------------------------------------------------|

G|--------------------------------------------------------------------------------|
D|--------------------------------------------------------------------------------|
A|---------------------3-3-3-3-3-3-3-3-5-5-5-5-5-5-5-5-3-3-3-3-5-5-5-5|
E|-3-3-3-3-3-3-3-3------------------------------------------------------------|

G|--------------------------------------------------------------------------------|
D|--------------------------------------------------------------------------------|
A|---------------------3-3-3-3-3-3-3-3-5-5-5-5-5-5-5-5-3-3-3-3-3-3-3-3|
E|-3-3-3-3-3-3-3-3------------------------------------------------------------|

G|------------------------------------------------------------------------------------------------|
D|------------------------------------------------------------------------------------------------|
A|-5-5--5-5--5-5--5-5--5-5--5-5--5-5--5-5--3-3--3-3--3-3--3-3--3-3--3-3--3-3--3-3-|
E|------------------------------------------------------------------------------------------------|

G|-------------------------------------------------------------------------------------------------|
D|-------------------------------------------------------------------------------------------------|
A|-5-5--5-5--5-5--5-5--5-5--5-5--5-5--5-5--3-3--3-3--3-3--3-3--5-5--5-5--5-5--5-5--|
E|-------------------------------------------------------------------------------------------------|

Intro x 2
Verse x 4
Pre-Chorus x 1
Chorus x 1

(Alkaline Trio have got to be the best band in the history of the
world)



Get this song at amazon.com      Ebay     Ringtones Ringtones  


Learn to play: Songwriting, Piano, Harmonica, Guitar
More Alkaline Trio lyrics available at Muzikum

Related Alkaline Trio Bass Tabs

Radio Perfect bass
The Poison bass
Cringe bass
This Could Be Love bass
Weak Week bass
Fall Victim bass
For Your Lungs Only bass
Stupid Kidd bass
Dead End Road bass
F*ck You Aurora bass
Cop bass
02 Weve Had Enough bass
Keep Em Coming bass
Warbrain bass
Burn bass
Im Dying Tomorrow bass
San Francisco bass
Armageddon bass
Sorry About That bass
Your Neck bass


Guitar Tabs









All tabs are property and copyright of their owners. All tabs provided for educational purposes only. Privacy Policy, DMCA