Alkaline Trio

F*ck You Auoura Bass Tabs



More from Alkaline Trio

Alkaline Trio Tabs
Alkaline Trio Chords
Alkaline Trio Bass
Alkaline Trio Lyrics



Intro: (x2)
G|--------------------------------------|
D|-----55--------7799-----44------------|
A|----------0000------2222--22-33333333-|
E|-3333--33-----------------------------|

Verse: (x2)
G|------------------------------------------|
D|------55---------7799------44-------------|
A|------------00-0------22-2----22-33-33333-|
E|-33-3----33-------------------------------|

(x2)
G|--------------------------------------|
D|-----55--------7799-----44------------|
A|----------0000------2222--22-33333333-|
E|-3333--33-----------------------------|

Bridge/Pre-Chorus:
G|-----------------------------------|
D|-----------------------------------|
A|-5555555555555555-3333333333333333-|
E|-----------------------------------|

G|-------------------------------------|
D|-------------------------------------|
A|-5555555555555555-33333333-5555-3333-|
E|-------------------------------------|

Chorus: (x2)
G|-------------------------------------|
D|-------------------------------------|
A|----------33333333-55555555-33333333-|
E|-33333333----------------------------|

Post-Chorus:
G|-------------------------------------|
D|-------------------------------------|
A|-5555555555555555-33333333-5555-3333-|
E|-------------------------------------|

End Note:
G|---|
D|---|
A|---|
E|-3-|

I believe this is 99.9% correct. Good Luck.



Get this song at amazon.com      Ebay     Ringtones Ringtones  


Learn to play: Songwriting, Piano, Harmonica, Guitar
More Alkaline Trio lyrics available at Muzikum

Related Alkaline Trio Bass Tabs

Jaked On Green Beer bass
This Could Be Love bass
Private Eye E A D G bass
Keep Em Coming bass
Weve Had Enough bass
Metro bass
I Lied My Face Off bass
Dead End Road bass
Amegeddon bass
You Aurora bass
Fall Victim bass
Hell Yes bass
The Metro bass
Stupid Kid bass
Another Innocent Girl bass
Armageddon bass
Blue Caroline bass
Clavicle bass
Steamer Trunk bass
Burn bass


Guitar Tabs









All tabs are property and copyright of their owners. All tabs provided for educational purposes only. Privacy Policy, DMCA