Alkaline Trio

Crawl Bass Tabs



More from Alkaline Trio

Alkaline Trio Tabs
Alkaline Trio Chords
Alkaline Trio Bass
Alkaline Trio Lyrics



-------------------------------------------------------------------------------
Crawl - Alkaline Trio
-------------------------------------------------------------------------------

By:Chris Sokn, sokn@hotmail.com
>=Strum 8 times
>>=strum 16 times

Alkaline Trio is one of the greatest bands around, go get their newest CD,
From Here to Infirmary. Their bass lines rule, and this is my favorite one.

Intro: I am about 90% sure on this, and the 9% is just that he may play
an octave above sometimes, and the 1% is in case I totally messes a part up :)

Intro 1 x1: starts about 2 seconds in (that's when I can hear 1st bass note).
You can play the doubled notes on the A string twice each for faster playing.
They may be played like that actually, and that is how I play them, but for
beginners, this is better.
G|--------------------------------------4------------------------------------|
D|---22-----22-----22-----22-----22----2-2--1-2-1-2-4-2-1-2------------------|
A|--0--2--22--2--00--2--44--2--00--2--2--------------------------------------|
E|---------------------------------------------------------------------------|

Intro 2 x1
G|----------------------------------------------4----------------------------|
D|----22-----22-----22-----22-----22-----22----2-2--1-2-1-2-4-2-1-2----------|
A|--44--2--00--2--22--2--00--2--44--2--00--2--2------------------------------|
E|---------------------------------------------------------------------------|

Verse 1 x5 "Waking up, zeroed in..."
G|---------------------------------------------------------------------------|
D|---------------------------------------------------------------------------|
A|-2>-4>-0>>-----------------------------------------------------------------|
E|---------------------------------------------------------------------------|

Interlude x1: Starts 2 seconds in like Intro 1
G|--------------------------------------4-4----------------------------------|
D|---22-----22-----22-----22-----22----2-2--2-1-2----------------------------|
A|--0--2--22--2--00--2--44--2--00--2--2--------------------------------------|
E|---------------------------------------------------------------------------|

Verse 1 modified: Play verse 1 x4 then at the end play A|-2>>-|

Chorus x2: "Never ran away for the sake..."
1st time play A, 2nd B Part A Part B
G|-------44--44------44--44-----------------:----------------:---------------|
D|--2>----------2>-----22------4444-----4444:----2222----2222:---------------|
A|-----00--00------44------2222-----2222----:0000----0000----:-0>>-------0>>-|
E|------------------------------------------:----------------:---------------|

Interlude 2 x2
G|---------------------------------------------------------------------------|
D|-11-22-44-22-11-44---------------------------------------------------------|
A|-------------------22222222------------------------------------------------|
E|---------------------------------------------------------------------------|

Verse 1 modified

Chorus x2

Outro x6 "Now I don't know, now I don't know, I don't know who..."
G|---------------------------------------------------------------------------|
D|-2>-1>---------------------------------------------------------------------|
A|-------0>-2>---------------------------------------------------------------|
E|---------------------------------------------------------------------------|

End on A|-2-|

Please don't steal my hard work. If you want to use it, just give me credit for
tabbing it out. Alkaline Trio rocks.
sokn@hotmail.com
===============================================================================

Taken from The BassMasta -- http://www.tabs-database.com



Get this song at amazon.com      Ebay     Ringtones Ringtones  


Learn to play: Songwriting, Piano, Harmonica, Guitar
Also available at Muzikum: Alkaline Trio - Crawl lyrics

Related Alkaline Trio Bass Tabs

The Metro bass
Jaked On Green Beer bass
Weve Had Enough bass
Snake Oil Tankers bass
Cop bass
5-3-10-4 bass
Keep Em Coming bass
San Francisco bass
Emma bass
Every Thug Needs A Lady bass
Private Eye bass
Continental bass
Fuck You Aurora bass
Mr Chainsaw bass
Radio Perfect bass
Sadie bass
Time To Waste-piano Part bass
Time To Waste bass
Stupid Kidd bass
02 Weve Had Enough bass


Guitar Tabs









All tabs are property and copyright of their owners. All tabs provided for educational purposes only. Privacy Policy, DMCA