Alkaline Trio

Cop Bass Tabs



More from Alkaline Trio

Alkaline Trio Tabs
Alkaline Trio Chords
Alkaline Trio Bass
Alkaline Trio Lyrics



Artist - Alkaline Trio
Album - Goddammit
Song - Cop
Tabbed By - Stephen Troesch
e-mail address - punkemoposertrio@aol.com
Standard tuning - E A D G
I'm correcting myself...

* means play crapload of times
10 is ten
12 is twelve
14 is fourteen

Intro (0:04) 2x's
G-------------------------------------------
D-------------------------------------------
A----/12*------10-----12*------10-----------
E-----------------12--------------12--------

(0:13) 2x's
G-----------------------------------------------
D-----------------------------------------------
A------------7-5-4-2--7-5-4-2--------
E--5*------------------------------------5*-----

Verse one (0:23)
G-------------------14----------------------
D-------------------------------------------
A-------------------------------------------
E--5-5-------5-5----------5-5-----4*--------

kinda iffy on this part (0:32)
G-------------------------------------------------
D-------------------12-10----10-------7-----------
A-------------------------12----12-7--------------
E--5-5-------5-5---------------------------4*----

Chorus iffy here too...3x's (0:40)
G----------9---------------------------------------
D--------------------------------------------------
A------------5-9-9-9-7-7-7-5-5---------------------
E--5-5-2-2-----------------------------------------

3rd Time
G------------------------------------------------
D------------------------------------------------
A--------------5-5-9-9-9-7-7-7-5-7*----------
E--5-5-2-2-0-0-----------------------------------

The "after chorus" riff 1x (0:49)
G--------------------------------
D--------------------------------
A-----------5--------------------
E--0--2--5-----0-----------5-----

(0:53)
G------------------14---------------
D-----------------------------------
A-----------------------------------
E--5-5-------5-5-------5-5-------4*-

Verse two (1:02)
G----------------------------------------------
D----------------------------------------------
A----------------------------------------------
E--5-5-------5-5-------5-5-------4*------------

(1:11)
G-----------------14--14------------------------
D-----------------------------------------------
A-----------------------------------------------
E--5-5-------5-5----------5-5-------4*-----------

--Chorus 3x's (1:19)
--"after chorus" riff (1:28)

Ending 5x's (1:32)
G-------------------------------------------
D---7*--------------------------------------
A---------------------7*------------555-4444
E-------------------------------------------

5th Time (2:07)
G------------------------------------------------
D---7*-------------------------------------------
A---------------------7*------------555-444-22-00
E------------------------------------------------

This may still be off, probably, but sounds a little better.

Comments or corrections or whatever, punkemoposertrio@aol.com






Get this song at amazon.com      Ebay     Ringtones Ringtones  


Learn to play: Songwriting, Piano, Harmonica, Guitar
Also available at Muzikum: Alkaline Trio - Cop lyrics

Related Alkaline Trio Bass Tabs

All On Black bass
One Hundred Stories bass
Fck You Aurora bass
Cop bass
Nose Over Tail bass
Private Eye E A D G bass
Dead End Road bass
Armagedon bass
Warbrain bass
Steamer Trunk bass
The Metro bass
Your Neck bass
Sadie bass
Sorry About That bass
This Could Be Love bass
Mercey Me bass
Fuck You Aurora bass
The Poison bass
Trucks And Trains bass
My Little Needle bass


Guitar Tabs









All tabs are property and copyright of their owners. All tabs provided for educational purposes only. Privacy Policy, DMCA