Alkaline Trio

Cooking Wine Bass Tabs



More from Alkaline Trio

Alkaline Trio Tabs
Alkaline Trio Chords
Alkaline Trio Bass
Alkaline Trio Lyrics

#----------------------------------PLEASE NOTE---------------------------------#
#This file is the author's own work and represents their interpretation of the #
#song. You may only use this file for private study, scholarship, or research. #
#------------------------------------------------------------------------------#


Song: Cooking Wine
Artist: Alkaline Trio
Tabbed by: Jim Price (J_Price@telus.net)

/=slide

Those are the parts you can figure out the order, its farily simple.

Riff 1:
G|--------------------------------------------------|
D|------4-------------------------------------------|
A|--5-7----------------4-5-----5/7-5----------------|
E|--------5--5-5-55--2-----3-3----------------------|

Riff 2:
G|--------------------------------------------------|
D|------4----------------4--------------------------|
A|--5-7----------------4--------5/7-5---------------|
E|--------5--5-5-55--2------3-3---------------------|

Riff 3:
G|--------------------------------------------------|
D|------4-------------------------------------------|
A|--5-7---------------------------------------------|
E|--------5--5-5-55--2-2-2-3-3-3-3------------------|

Chorus 
G|--------------------------------------------------|
D|--------------------------------------------------|
A|-------------------------------5-5-5---7-7-7-7----|
E|-3--3-3-3--3-3-3--3-3-3-3-3-3---------------------|



Get this song at amazon.com      Ebay     Ringtones Ringtones  


Learn to play: Songwriting, Piano, Harmonica, Guitar
301 Moved Permanently

Moved Permanently

The document has moved here.

Related Alkaline Trio Bass Tabs

Queen Of Pain bass
The Poison bass
This Could Be Love bass
Stupid Kid bass
Private Eye bass
Madame Me bass
F**k You Aurora bass
Mercey Me bass
02 Weve Had Enough bass
You Aurora bass
My Friend Peter bass
Radio bass
Continental bass
The Metro bass
I Lied My Face Off bass
San Francisco bass
Snake Oil Tankers bass
Cop bass
We Ve Had Enough bass
Sorry About That bass


Guitar Tabs




All tabs are property and copyright of their owners. All tabs provided for educational purposes only. Privacy Policy, DMCA