Alkaline Trio

Clavicle Bass Tabs



More from Alkaline Trio

Alkaline Trio Tabs
Alkaline Trio Chords
Alkaline Trio Bass
Alkaline Trio Lyrics



-------------------------------------------------------------------------------
CLAVICLE - Alkaline Trio
-------------------------------------------------------------------------------

intro
-----------------------------
------222--------------------
--0>-------------------------
-----------------------------

-----------------------------
-----------------------------
-0>-2>-4>-7>----------------- x3
-----------------------------

-----------------------------
-----------------------------
------5>---------------------
-222-2-----------------------

verse a
------------------------------------------------------
------------------------------------------------------
-0>-2>-4>----0>-77-9--77-55-44-----2>-4>---------5>---
----------0>--------------------0>-------0>-222-2-----

verse b
-------------------------------------------
-------------------------------------------
-0>-2>-4>----0>-2>-4>-7>-0>-2>-4>--------5>
----------0>---------------------0>-2222---

chorus (i wanna wake up naked...) (second time it is strummed through)
----------------------------------
---2----------2-----6-----7----7--
-----4-5--------2-4---4-5----0-0--
-2---------2----------------------

segway
-2-2-1-----------222211-----------
-------4-2-0-----------442200-----
-------------4-2-------------4422-
----------------------------------

bridge
---------------------------------------
---------------------------------------
-2>-4>-55-5554-55-5557-55-5554-55-5557-
---------------------------------------

---------------------------------------
-----------------------------2>--------
-0--------------555-777-555------------
---2>-2/12



Get this song at amazon.com      Ebay     Ringtones Ringtones  


Learn to play: Songwriting, Piano, Harmonica, Guitar
Also available at Muzikum: Alkaline Trio - Clavicle lyrics

Related Alkaline Trio Bass Tabs

Fuck You Aurora bass
Wash Away bass
San Francisco bass
The Metro bass
Fatally Yours bass
Trucks And Trains bass
Goodbye Forever bass
Cooking Wine bass
5-3-10-4 bass
Private Eye bass
02 Weve Had Enough bass
For Your Lungs Only bass
Another Inocent Girl bass
You Aurora bass
Stupid Kid bass
Amegeddon bass
Radio bass
F*ck You Aurora bass
Cringe bass
Blue Caroline bass


Guitar Tabs









All tabs are property and copyright of their owners. All tabs provided for educational purposes only. Privacy Policy, DMCA