Alkaline Trio

Burn Bass Tabs



More from Alkaline Trio

Alkaline Trio Tabs
Alkaline Trio Chords
Alkaline Trio Bass
Alkaline Trio Lyrics




Verse (Slide on only on first verse) 2x
G| ------------------------------------------------------------------ |
D| ------------------------------------------------------------------ |
A| ------------------------------------------------------------------ |
E| --12-44-p-22-h-44-p-2-h-4-p-2h-4p-2-h4-p-2--22x2222-00x0000-0-0- |

G| ----------------------------------------------------------------------------------- |
D| ----------------------------------------------------------------------------------- |
A| ----------------------------------------------------66x6666-77x7777-7-7------------ |
E| --44-p-22-h-44-p-2-h-4-p-2h-4p-2-h4-p-2-------------------------------------------- |

Pre Chorus 2x
G| ------------------------------------------------------ |
D| ------------------------------------------------------ |
A| ------------------------------------------------------ |
E| --44-p-22-h-44-p-2-h-4-p-2h-4p-2-h4-p-2--------------- |

Chorus (Listen for rhythm)
G| --------------------------------------------------------- |
D| --------------------------------------------------------- |
A| --------------------------------------------------------- | 3x
E| --0000000000000000-444444-2222222222--------------------- |

G| -------------------------------------------------------- |
D| -------------------------------------------------------- |
A| -------------------------------------------------------- |
E| --0000000000000000-22222222-33333333-------------------- |

Post Chorus
G| ------------------------------------------------------- |
D| ------------------------------------------------------- |
A| ------------------------------------------------------- | 3x
E| --44-p-22-h-44-p-2-h-4-p-2h-4p-2-h4-p-2---------------- |

G| ---------------------- |
D| ---------------------- |
A| --66x-66x-77~--------- |
E| ---------------------- |
Verse 2x
Pre Chorus
Chorus
Bridge: Piano only
Chorus
Outro (Listen for rhythm)
G| ----------------------------------------- |
D| ----------------------------------------- |
A| ----------------------------------------- |
E| --4-444--7-777-0-0000--2-222------------- |

G| --------------------------------- |
D| --------------------------------- |
A| --------------------------------- |
E| --4-444--7-777-0-0000~----------- |

G| ----------------------------------------- |
D| ----------------------------------------- |
A| ----------------------------------------- |
E| --4-444--7-777-0-0000---2-222------------ |

G| -------------------------------------------------------------- |
D| -------------------------------------------------------------- |
A| -------------------------------------------------------------- |
E| --00000000---22222222---00000000--2222-3333------------------- |

G| ------------------------------------------------------ |
D| ------------------------------------------------------ |
A| ------------------------------------------------------ |
E| --44-p-22-h-44-p-2-h-4-p-2h-4p-2-h4-p-2--------------- |



Get this song at amazon.com      Ebay     Ringtones Ringtones  


Learn to play: Songwriting, Piano, Harmonica, Guitar
301 Moved Permanently

Moved Permanently

The document has moved here.

Related Alkaline Trio Bass Tabs

Cringe bass
Emma bass
Fuck You Aurora bass
Radio bass
My Little Needle bass
Metro bass
Madame Me bass
F*ck You Auoura bass
Old School Reasons bass
Fatally Yours bass
Private Eye E A D G bass
Mercey Me bass
Fall Victim bass
Dead End Road bass
Steamer Trunk bass
Keep Em Coming bass
Continental bass
Warbrain bass
Radio Perfect bass
Cooking Wine bass


Guitar Tabs




All tabs are property and copyright of their owners. All tabs provided for educational purposes only. Privacy Policy, DMCA