Alkaline Trio

Blue In The Face Chords, Tabs



More from Alkaline Trio

Alkaline Trio Tabs
Alkaline Trio Chords
Alkaline Trio Bass
Alkaline Trio Lyrics

#-----------------------------PLEASE NOTE-------------------------------------#
#This OLGA file is the author's own work and represents their interpretation  #
#of the song. You may only use this file for private study, scholarship, or   #
#research. Remember to view this file in Courier, or some other monospaced    #
#font. See http://www.olga.net/faq/ for more information.                     #
#-----------------------------------------------------------------------------#



Subject: a/alkaline_trio/blue_in_the_face.crd

blue in the face
written by: alkaline trio
tabbed by: bill shurina

# - Hammer On
/ - Slide

note: I did not tab out the strumming pattern

Intro:
this basically repeats until lyrics start
-0--0---0-
-0--0---0-
-1--#2--1-
-2--2---2-
-2--2---2-
-0--0---0-

 








Verse:
--------------------
--------------------
-----------------2--
-9--6----7--6----2--
-7--7----4--4----0--
-0--0----0--0----0--

last part transitioning into chorus:
--------------------
--------------------
-----------------4--
-9--6----7--6----4--
-7--7----4--4----2--
-0--0----0--0----0--

Chorus:
-0--0--0-----0--0--0----0--0--0--0--0--0--
-0--0--0-----0--0--0----0--0--0--0--0--0--
-2--1--4-----2--1--4----2--1--4--4--2--4--
-2--2--4-----2--2--4----2--2--4--6--2--4--
-0--2--2-----0--2--2----0--2--2--6--0--2--
-0--0--0-----0--0--0----0--0--0--4--0--0--
back to verse at first chorus.  after second chorus go to intro loop, then
to this:

"when all that followed fell" part:
----------------------------------------------------
----------------------------------------------------
----------------------------------------------------
-9--9--4--2----9--9--4--2----9--9--4--2----9--2--4--
-7--6--2--0----7--6--2--0----7--6--2--0----7--0--2--
-0--0--0--0----0--0--0--0----0--0--0--0----0--0--0--

"and i cant sleep..."
-0--0---0---0--0----0--0---0---0--0----0--0---0---0--0--0---0--0--X--0--
-0--0---0---0--0----0--0---0---0--0----0--0---0---0--0--0---0--0--X--0--
-1--#2--1---4--2----1--#2--1---4--2----1--#2--1---4--2--4---2--4--X--1--
-2--2---2---6--2----2--2---2---6--2----2--2---2---6--2--4---2--4--X--2--
-2--2---2---6--0----2--2---2---6--0----2--2---2---6--0--2---0--2--X--2--
-0--0---0---4--0----0--0---0---4--0----0--0---0---4--0--0---0--0--X--0--

 








_________________________________________________________________
Get this song at amazon.com      Ebay     Ringtones Ringtones  


Learn to play: Songwriting, Piano, Harmonica, Guitar
Also available at Muzikum: Alkaline Trio - Blue In The Face lyrics

Related Alkaline Trio Chords

If You Had A Bad Time chords
Continental chords
Broken Wing chords
Sadie chords
Nose Over Tail chords
Crawl chords
San Francisco chords
Mr Chainsaw chords
My Little Needle chords
My Standard Break From Life chords
Private Eye chords
Steamer Trunk chords
Radio chords
Only Love chords
Blue Carolina chords
Sundials chords
Blue In The Face chords
Cringe chords
I Pessimist chords
One Last Dance chords


Guitar Tabs









All tabs are property and copyright of their owners. All tabs provided for educational purposes only. Privacy Policy, DMCA