Alkaline Trio

Blue Caroline Bass Tabs



More from Alkaline Trio

Alkaline Trio Tabs
Alkaline Trio Chords
Alkaline Trio Bass
Alkaline Trio Lyrics



BLUE CAROLINE by The Alkaline Trio. Album : Good Mourning (2003)
:
# intro #
G------------------------------------|
D---2--------2-------*---*-----------|
A------0--2-----5---3---5----*---*---|
E---------------------------0---0----|
:
# verse # x2 *=play x8 #=play x4
G----*------------#-----------------------|
D---2----*---*---2----#---*---*-----------|
A-------0---2--------5---3---5----*---*---|
E--------------------------------0---0----|
:
# chorus-1 # *=play x8
G---------------(x2)------------------|--------------------->|
D----*---*---*---*--------*---*---*---|---------*---*---*--->|
A---3---3---5---5----*---3---5---5----|----*---3---5---5---->|
E-------------------3-----------------|---3----------------->|
:
G--------(x2)---------|--------------------|
D---------------------|----*---*-----------|
A---------------------|---3---5----*---*---|
E---0--00-0--5--555---|-----------0---0----|
:
Then Play verse
:
# chorus-2 # *=play x8 #=play x7
G---------------(x2)------------------|--------------------->|
D----*---*---*---*--------*---*---*---|---------*---*---*--->|
A---3---3---5---5----*---3---5---5----|----*---3---5---5---->|
E-------------------3-----------------|---3----------------->|
:
G--------(x2)---------|---------------------------------------------|
D---------------------|----*---*--------------------*---*---*---*---|
A---------------------|---3---5----#---#---#---#---3---5---2---2----|
E---0--00-0--5--555---|-----------0---5---0---5---------------------|
:
# bridge # *=play x8
G--------------------------------------------------------|
D----*--*---------*--*------*--*--*---------------*--*---|
A---3--3---*--*--3--3---*--5--3--3---*--*--*--*--3--5----|
E---------3--3---------3------------3--2--0--0-----------|
:
# end-chorus # *=play x8 #=play x7
G---------------(x2)------------------|--------------------->|
D----*---*---*---*--------*---*---*---|---------*---*---*--->|
A---3---3---5---5----*---3---5---5----|----*---3---5---5---->|
E-------------------3-----------------|---3----------------->|
:
G------------(x2)-------------|-------|
D---------------------*---*---|-------|
A----#---#---#---#---3---5----|-------|
E---0---5---0---5-------------|---0---|
:
Tabbed by Bradley Hall

Taken from The BassMasta -- http://www.tabs-database.com



Get this song at amazon.com      Ebay     Ringtones Ringtones  


Learn to play: Songwriting, Piano, Harmonica, Guitar
More Alkaline Trio lyrics available at Muzikum

Related Alkaline Trio Bass Tabs

Madame Me bass
Hell Yes bass
Amegeddon bass
All On Black bass
You Aurora bass
F*ck You Auoura bass
Weak Week bass
Another Inocent Girl bass
Tuck Me In bass
Crawl bass
One Hundred Stories bass
Jaked On Green Beers bass
Time To Waste bass
Maybe Ill Catch Fire bass
Cop bass
Mercey Me bass
Cooking Wine bass
This Could Be Love bass
Stupid Kid bass
Emma bass


Guitar Tabs









All tabs are property and copyright of their owners. All tabs provided for educational purposes only. Privacy Policy, DMCA