Alkaline Trio

Blue Carolina Bass Tabs



More from Alkaline Trio

Alkaline Trio Tabs
Alkaline Trio Chords
Alkaline Trio Bass
Alkaline Trio Lyrics



Alkaline Trio = Blue Carolina

Intro
G------------------------------------|
D---2--------2-------*---*-----------|
A------0--2-----5---3---5----*---*---|
E---------------------------0---0----|

Verse x2 * - x8 ~ - x4
G----*------------~-----------------------|
D---2----*---*---2----~---*---*-----------|
A-------0---2--------5---3---5----*---*---|
E--------------------------------0---0----|

Chorus 1 * - x8
G---------------(x2)------------------|---------------------|
D----*---*---*---*--------*---*---*---|---------*---*---*---|
A---3---3---5---5----*---3---5---5----|----*---3---5---5----|
E-------------------3-----------------|---3-----------------|

G--------(x2)---------|--------------------|
D---------------------|----*---*-----------|
A---------------------|---3---5----*---*---|
E---0--00-0--5--555---|-----------0---0----|

Play Verse

Chorus 2 * - x8 ~ - x7
G---------------(x2)------------------|---------------------|
D----*---*---*---*--------*---*---*---|---------*---*---*---|
A---3---3---5---5----*---3---5---5----|----*---3---5---5----|
E-------------------3-----------------|---3-----------------|
:
G--------(x2)---------|---------------------------------------------|
D---------------------|----*---*--------------------*---*---*---*---|
A---------------------|---3---5----~---~---~---~---3---5---2---2----|
E---0--00-0--5--555---|-----------0---5---0---5---------------------|
:
Bridge * - x8
G--------------------------------------------------------|
D----*--*---------*--*------*--*--*---------------*--*---|
A---3--3---*--*--3--3---*--5--3--3---*--*--*--*--3--5----|
E---------3--3---------3------------3--2--0--0-----------|
:
Outro * - x8 ~ - x7
G---------------(x2)------------------|---------------------|
D----*---*---*---*--------*---*---*---|---------*---*---*---|
A---3---3---5---5----*---3---5---5----|----*---3---5---5----|
E-------------------3-----------------|---3-----------------|
:
G------------(x2)-------------|-------|
D---------------------*---*---|-------|
A----~---~---~---~---3---5----|-------|
E---0---5---0---5-------------|---0---|

Tabbed By Jay - JayBee89@hotmail.com






Get this song at amazon.com      Ebay     Ringtones Ringtones  


Learn to play: Songwriting, Piano, Harmonica, Guitar
Also available at Muzikum: Alkaline Trio - Blue Carolina lyrics

Related Alkaline Trio Bass Tabs

Continental bass
Steamer Trunk bass
Jaked On Green Beer bass
Maybe Ill Catch Fire bass
This Is Getting Over You bass
Cringe bass
Weak Week bass
Sorry About That bass
Amegeddon bass
Private Eye E A D G bass
Crawl bass
5-3-10-4 bass
Fatally Yours bass
Mr Chainsaw bass
My Friend Peter bass
Mercey Me bass
Old School Reasons bass
Metro bass
Trucks And Trains bass
The Metro bass


Guitar Tabs









All tabs are property and copyright of their owners. All tabs provided for educational purposes only. Privacy Policy, DMCA