Alkaline Trio

Armagedon Bass Tabs



More from Alkaline Trio

Alkaline Trio Tabs
Alkaline Trio Chords
Alkaline Trio Bass
Alkaline Trio Lyrics




Intro1 x2
G|-----------------------|
D|-----------------------|
A|--77677767-4444--------|
E|----------------5555---|

Intro2 x1
G|---------------------------|
D|---------------------------|
A|--77677767-4444------------|
E|-----------------5555-7>---|

Verse x3
G|---------------------------------------|
D|---------------------------------------|
A|--4444777744447777-----575------979----|
E|-------------------5555---7-7777---9---|

Verse Modified x1
G|-------------------------|
D|-------------------------|
A|--4>---------------------|
E|-----55555555-77777777---|

Intro1 x2
Verse x3
Verse Modified x1

Chorus x1
| first part | second part |
G|--------------------|--------------------------------|
D|--------------------|--------------------------------|
A|--7>---4>-----------|--7>-444444444466464------------|
E|-----------7>--5>---|--------------------6--7>--5>---|

Intro1 x2
Intro2 x1

First verse
G|------------|
D|------------|
A|--4---------|
E|-----5---7--|

Verse x2
Verse Modified x1
Chorus x1

Bridge1 x1
G|------------------------------------------|
D|------------------------------------------|
A|-44444444-6666666699999999111111119999---|
E|------------------------------------------|

Bridge2 x1
G|-----------------------------------------|
D|-----------------------------------------|
A|-44444444-6666666699999999999119119-----|
E|------------------------------------11---|

Bridge1 x1

Bridge3 x1
G|--------------------------------------|
D|--------------------------------------|
A|-44444444-66666666-7777777777777777---|
E|--------------------------------------|

Chorus first part x1

Chorus Modified second part x1
G|-------------------------------|
D|-------------------------------|
A|-777777777777540---4>----------|
E|----------------------7>--5>---|



Get this song at amazon.com      Ebay     Ringtones Ringtones  


Learn to play: Songwriting, Piano, Harmonica, Guitar
More Alkaline Trio lyrics available at Muzikum

Related Alkaline Trio Bass Tabs

Jaked On Green Beers bass
The Metro bass
My Friend Peter bass
Nose Over Tail bass
Continental bass
Adeledia bass
This Is Getting Over You bass
Time To Waste bass
All On Black bass
Armagedon bass
Fall Victim bass
This Could Be Love bass
Cooking Wine bass
Metro bass
Cop bass
Crawl bass
Fuck You Aurora bass
Queen Of Pain bass
Warbrain bass
Sadie bass


Guitar Tabs









All tabs are property and copyright of their owners. All tabs provided for educational purposes only. Privacy Policy, DMCA