Alkaline Trio

All On Black Bass Tabs



More from Alkaline Trio

Alkaline Trio Tabs
Alkaline Trio Chords
Alkaline Trio Bass
Alkaline Trio Lyrics



Pretty sure this is right.



~ = Let ring



Intro

G|----------------------------------------------------------------|

D|----------------------------------------------------------------|

A|00000022332200----------/77777770000002233225533----------------|

E|--------------33111111111-----------------------1111111111111111|



Verse 1 Part 1

G|----------------------------------------------------------------|

D|----------------------------------------------------------------|

A|0~~~~~~~~~~~~~~~----------------0~~~2~~~3~~~5~~~----------------|

E|----------------1~~~~~~~~~~~~~~~----------------1~~~~~~~3~~~~~~~|



Verse 1 Part 2

G|----------------------------------------------------------------|

D|-----------------3~~3/5/3~~~~~~~--------------------------------|

A|0~~~~~~~~~~---------------------0~~~2~~~3~~~5~~~----------------|

E|---------------1~-------------------------------1~~~~~~~3~~~~~~~|



Verse 2 Part 1

G|----------------------------------------------------------------|

D|----7777----320-----3333----3333--------------------------------|

A|0000----0000---3----------------0000222233335555----------------|

E|----------------1111----1111--------------------1111111113333333|



Verse 2 Part 2

G|----------------------------------------------------------------|

D|------------320-------------------------------------------------|

A|000000000000---3----------------0000222233335555----------------|

E|----------------1111111111111111----------------1111111133333333|



Bridge 1

G|----------------------------------------------------------------|

D|------------------------------------------------33333333~~~~~~~~|

A|----------------------------------------------------------------|

E|111111111111111133333333333333331111111111111111----------------|



Bridge 2

G|----------------------------------------------------------------|

D|--------33333333--------55555555----------------3333333333333333|

A|----------------------------------------------------------------|

E|11111111--------33333333--------1111111111111111----------------|



Chorus

G|--------------------------------|

D|----7777----7777----3333----5555|

A|0000----0000--------------------|

E|----------------1111----3333----|



Riff

G|----------------------------------------------------------------|

D|----------------------------------------------------------------|

A|3333333333333333------------------------------------------------|

E|----------------111111111111111155555555555555553333333311111111|



Outro Part 1

G|------------------------------------------------|

D|----5555----5555----7777----7777----3333----3333|

A|3333----3333----0000----0000--------------------|

E|--------------------------------1111----1111----|



Outro Part 2

G|----------------|

D|----------------|

A|00000022332200--|

E|--------------33|



Ending Note

G|-|

D|-|

A|-|

E|1|



Songflow:

Intro x 1

Verse 1 Part 1 x 1

Verse 1 Part 2 x 1

Intro x 1

Verse 2 Part 1 x 1

Verse 2 Part 2 x 1

Bridge x 1

Chorus x 4

Intro x 1

Verse 2 Part 1 x 1

Verse 2 Part 2 x 1

Bridge 2 x 1

Chorus x 4

Riff x 2

Outro Part 1 x 4

Outro Part 2 x 1

Ending Note.

Added by tabs-database.com and our distinguished partners
Get this song at amazon.com      Ebay     Ringtones Ringtones  


Learn to play: Songwriting, Piano, Harmonica, Guitar
More Alkaline Trio lyrics available at Muzikum

Related Alkaline Trio Tabs

97 tabs
Mister Chainsaw tabs
Mercy Me Bass tabs
Continental tabs
This Is Getting Over You tabs
She Lied to the FBI tabs
Fine Without You tabs
Donner Party All Night Bass tabs
Donner Party All Night Long tabs
Donner Party tabs
Time To Waste tabs
Buried tabs
Im Only Here To Disappoint tabs
Radio tabs
Stupid Kid tabs
Trouble Breathing tabs
Private I tabs
Enjoy Your Day tabs
Good Bye Forever tabs
Jaked On Green Beers tabs


Guitar Tabs









All tabs are property and copyright of their owners. All tabs provided for educational purposes only. Privacy Policy, DMCA