Alkaline Trio

5-3-10-4 Bass Tabs



More from Alkaline Trio

Alkaline Trio Tabs
Alkaline Trio Chords
Alkaline Trio Bass
Alkaline Trio Lyrics




Easy song to play, you'll get it really quick!!

Intro
G:------------------------------------------------------
D:------------------------------------------------------
A:--------------77-777-8-88-8888------------------------
E:55-555-7778888----------------------------------------

Verse
G:------------------------------------------------------
D:------------------------------------------------------
A:--------------77-777-8-88-8888------------------------
E:55-555-7778888----------------------------------------

Bridge:
G:------------------------------------------------------
D:--------------------------------1---------------------
A:----10------10------10--88888888----------------------
E:8888--888888--888888--88------------------------------

Chorus:
G:-------------------------------------------------------
D:-------------------------------------------------------
A:------10--------88888888-------------------------------
E:88888---88888888---------------------------------------

Last verse (solo):
G:-------------------------------------------------------
D:-------------------------------------------------------
A:-------------------------------------------------------
E:55-555-7778888-00-000-1-11-1111------------------------



Get this song at amazon.com      Ebay     Ringtones Ringtones  


Learn to play: Songwriting, Piano, Harmonica, Guitar
301 Moved Permanently

Moved Permanently

The document has moved here.

Related Alkaline Trio Bass Tabs

Warbrain bass
Stupid Kid bass
My Friend Peter bass
Fall Victim bass
Crawl bass
Radio bass
Youve Got So Far To Go bass
Clavicle bass
Blue Carolina bass
Burn bass
Your Neck bass
Every Thug Needs A Lady bass
Mercy Me bass
You Aurora bass
Jaked On Green Beer bass
F*ck You Aurora bass
02 Weve Had Enough bass
Hating Every Minute bass
Sadie bass
Donner Party (all Night) bass


Guitar Tabs




All tabs are property and copyright of their owners. All tabs provided for educational purposes only. Privacy Policy, DMCA