Alkaline Trio

02 Weve Had Enough Bass Tabs



More from Alkaline Trio

Alkaline Trio Tabs
Alkaline Trio Chords
Alkaline Trio Bass
Alkaline Trio Lyrics



BAND: Alkaline Trio
SONG: We've Had Enough
ALBUM: Good Mourning
LABEL: Vagrant Records

INTRO:
G: ------------------------------------------------------------------------------
D: ------------------------------------------------------------------------------
A: -----------------77777777-------------------4444444------------------2222222--
E: -22-00-22-00-22-------------22-00-22-00-22-----------22-00-22-00-22-----------

INTRO (continued)
G: ------------------------------------------------------------------------------
D: ------------------------------------------------------------------------------
A: ------------------------------------------------------------------------------
E: --22--44--55--44--77--55--44--55----------------------------------------------

VERSE:
G: ------------------------------------------------------------------------------
D: ------------------------------------------------------------------------------
A: ----------------------------------------------------22-222-25555555-----------
E: -22-222-222-2200--22-222-222-2200--55-555-555-5522----------------------------

CHORUS:
G: ------------------------------------------------------------------------------
D: ------------------------------------------------------------------------------
A: ----------------------------5555555-------------------------------------------
E: -5555555--5555555--2222222----------------------------------------------------

BRIDGE:
G: ------------------------------------------------------------------------------
D: ------------------------------------------------------------------------------
A: -----5~------7~------5~--77777777777777---------------------------------------
E: -5~------5~------5~-----------------------------------------------------------

OUTRO:
G: ------------------------------------------------------------------------------
D: ------------------------------------------------------------------------------
A: ------------------------------------------------------------------------------
E: -22--44--55--44--77--55--44--55--7~-------------------------------------------

Sometimes parts of the intro are used between verses but it's really easy to figure out
which parts. Listen to the song to work it out!

Tabbed by TheSammich!

Taken from The BassMasta -- http://www.tabs-database.com



Get this song at amazon.com      Ebay     Ringtones Ringtones  


Learn to play: Songwriting, Piano, Harmonica, Guitar
More Alkaline Trio lyrics available at Muzikum

Related Alkaline Trio Bass Tabs

Sadie bass
Steamer Trunk bass
Trucks And Trains bass
My Little Needle bass
Armageddon bass
Tuck Me In bass
San Francisco bass
Goodbye Forever bass
Keep Em Coming bass
The Metro bass
Clavicle bass
Queen Of Pain bass
Fuck You Aurora bass
Mercy Me bass
Continental bass
Another Innocent Girl bass
All On Black bass
Metro bass
Blue Caroline bass
Private Eye bass


Guitar Tabs









All tabs are property and copyright of their owners. All tabs provided for educational purposes only. Privacy Policy, DMCA