Alice Nine

Yami Ni Chiru Sakura Bass Tabs



More from Alice Nine

Alice Nine Tabs

This is my first time doing this so if something sounds off just tell me ok?



I noticed that there weren't any Alice Nine songs on here so here's one!



Artist: Alice Nine

Song: Yami Ni Chiru Sakura



Intro: (x1)

G|------------------------------------------|

D|------------------------------------------|

A|--3-33----3-33----3-33----3-33------------|

E|------------------------------------------|



Intro: (x1)

G|------------------------------------------|

D|------------------------------------------|

A|--3-33----3-33----3-33---3-6-8-4----------|

E|------------------------------------------|



Verse1: (x4)

G|------------------------------------------|

D|------------------------------------------|

A|-4-33----4-33----4-33----4-31-------------|

E|------------------------------------------|



Chorus: (x2)

G|------------------------------------------|

D|------------------------------------------|

A|-3------------------4---------------44----|

E|----22---00--0--23----22--00--0--23----23-|

Verse2: (x4)

G|------------------------------------------|

D|------------------------------------------|

A|-4-33---4-33----4-33----4-31--------------|

E|------------------------------------------|



Chorus: (x1)

G|------------------------------------------|

D|------------------------------------------|

A|-3------------------4-------------44------|

E|---22---0-------23----22--00--23-----23---|



Chorus: (x1)

G|---------------------------------------------|

D|---------------------------------------------|

A|-3------------------4-------------44--4444---|

E|---22---0-------23-----22--00--23------------|



Verse3: (x7)

G|----------------------|

D|---------------88-----|

A|-4---333---66---------|

E|----------------------|



Chorus: (x2) this isn't exact but it works well with the music

G|--------------------------------------------------------|

D|--------------------------------------------------------|

A|-----------------4---44444444----------------3-33333333-|

E|-1--111--33--44---------------4----44444444-------------|



Chorus: (x1)

G|------------------------------------------------|

D|------------------------------------------------|

A|-33-3----------44-4----------33-3---------44-4--|

E|------------------------------------------------|



Verse5: (x1)

G|------------------------------------------------|

D|------------------------------------------------|

A|-1--3--333--1--3--4--3---1--3--333--------------|

E|------------------------------------------------|



Chorus: (x2)

G|--------------------------------------------------------|

D|--------------------------------------------------------|

A|-----------------4---44444444----------------3-33333333-|

E|-1--111--33--44---------------4----44444444-------------|



Verse6: (x7)

G|-----------------|

D|--------------88-|

A|-4---333---66----|

E|-----------------|



Chorus: (x2)

G|---------------------------------------------------------|

D|---------------------------------------------------------|

A|----------------4---44444444----------------3---33333333-|

E|-1--111--33--44---------------4---444444444--------------|





END! xD

i hope this helped!



Added by tabs-database.com and our distinguished partners
Get this song at amazon.com      Ebay     Ringtones Ringtones  


Learn to play: Songwriting, Piano, Harmonica, Guitar

Related Alice Nine Tabs

Shunkashuutou tabs
Yami Ni Chiru Sakura Bass tabs


Guitar Tabs









All tabs are property and copyright of their owners. All tabs provided for educational purposes only. Privacy Policy, DMCA