Alice Nine

Shunkashuutou Tabs



More from Alice Nine

Alice Nine Tabs

TITLE: Shunkashuutou

ARTIST: Alice Nine

ALBUM: Alice In Wonderland

Tabbed by: LadyRebeL99

Key: Standard



=====================================================





intro: F...(break)



G F#m B#m A

|----|----|----|----| (2x)





G F#m

Haru wa mimi wo nadate

B#m A

Natsu ha kami wo soyogu

G F#m

Aki no someta iro ni

B#m

Fuyu ni tachi tsukusu.







G F#m

Muryoku datta bokura wa

B#m

Shudan wo sagashiteita

G F#m

Jibun ga tobudake no

B#m A - G - F#m

Asu he no tsubasa wo







G(break) F#m(break) B#m A G G-F#m(break)

Yurete, yurarete habatake iru toki made, YEAH





F...

"Fui ni ochita shisen no saki doko he, doko made arukeba"







G F#m B#m A

Fusaideta beroa no yoru ni mo

G F#m B#m

Ashita no mukae ga kuru kara

G F#m B#m A

Mabayukute kokyuu sura dekinai

G F#m B#m

Kagayakeru kono hibi wa

bass





G F#m B#m A

(Haru ni saita yume wo

G F#m

Natsu ni yume miteta

G F#m B#m/A

Aki ni omohi meguri

G F#m(break)

Fuyu wa kotae sagashite)







G F#m B#m A

Bokura wa egai ta mirai yosouzu wo

G F#m B#m G-G-F#m

Kimama ni tobidakute omoi egai ta









G(break) F#m(break) B#m A G G-F#m...F(break)

Yurete, yurarete habatake iru toki made, YEAH





G-F#m

"Itsuka, itsumade, Waraemasu ka? Doko he, doko made hashitte"





G F#m B#m A

Haru ga kitara owakareda ne to

G F#m B#m

Tsubuyaita gogo no kaerimichi

G F#m B#m A

Kono yume wa owarasetakunai

G F#m B#m

Kane no naru oto no shita





===================================================

GUITAR SOLO

(GTR1-LEAD)

=====================================================

Key:

~ -Bend

s -Slide

h -Hold

p -Pause



=====================================================

G-F#m-B#m-A





F..G-F#m B#m A





e-15~-15~-----13-12-13-15-15s17-15-----------------|

B---------------------------------13~--------------|

G--------------------------------------------------|

D--------------------------------------------------|

A--------------------------------------------------|

E--------------------------------------------------|





G

e--------------------------------------------------|

B-12h13-13-15-17-18-17-15-17-17-15-13-15-13-10~~---|

G--------------------------------------------------|

D--------------------------------------------------|

A--------------------------------------------------|

E--------------------------------------------------|



G F#m

e--------------------------------------------------|

B------------10h11-9p------------------------------|

G--------------------------------------------------|

D-10h11-10-11--------------------------------------|

A--------------------------------------------------|

E--------------------------------------------------|



B#m A

e---------------------------------------------------|

B------------10h11-9--------------------------------|

G---------------------------------------------------|

D-11h10-10-11---------------------------------------|

A---------------------------------------------------|

E---------------------------------------------------|



G A

e---------------------------------------------------|

B-6-7-9----9-11-9~~---------------------------------|

G------8-10-----------------------------------------|

D---------------------------------------------------|

A---------------------------------------------------|

E---------------------------------------------------|





GTR3(BASS)



G-----------------|

D-----------------|

A-9-8-6-8-6-------|

E----------8------|



=====================================================







G(break) F#m(break) B#m A G G-F#m(break)

Yurete, yurarete habatake iru toki made, YEAH





F...(break)

"Koe wa kimi ni, todokimasu ka? Sora ni hibiku uta-koe wo"







G F#m B#m A

Yurareteta chiisana omoi wa

G F#m B#m

Oozora ni yume wo egaku kara

G B#m A

Kono yume wa owarasetakunai

G F#m B#m

Kotoba wa mou iranai





G-F#m B#m A

Asu wanai kamoshirenai

G-F#m B#m

Ima dakara kokoro kara ieru yo

G-F#m B#m A

Kitto tadori tsuku basho he

G-F#m B#m

Kimi to ireru youni









outro: G-F#m-B#m-A



GTR3(BASS)



G-----------------|

D-----------------|

A-9-8-6-8-6-------|

E----------8------|



(break)



=====================================================



yEah 1sT tyM ko mAg Tab!!

(Plz RaTe iT)

pLz sEnd iN yOur CommEntz, rEqueZts aNd SugGesTioNz to My EmaiL add

Added by tabs-database.com and our distinguished partners
Get this song at amazon.com      Ebay     Ringtones Ringtones  


Learn to play: Songwriting, Piano, Harmonica, Guitar

Related Alice Nine Tabs

Shunkashuutou tabs
Yami Ni Chiru Sakura Bass tabs


Guitar Tabs









All tabs are property and copyright of their owners. All tabs provided for educational purposes only. Privacy Policy, DMCA