Alice in Chains

Alice in Chains - Them Bones (correct Version) bass tab

Alice In Chains

"Them Bones" on 5-string and drop D

this song is in 7/8 time signature

for 5-string:

G|------------------------------|

D|------------------------------|

A|------------------------------|

E|------------------------------|

B|--3-3-3-3-4-4-4-4-5-5-5-6-6-6-|

(Last time)

G|------------------------------|

D|------------------------------|

A|------------------------------|

E|------------------------------|

B|--3-3-3-3-4-4-4-4-5-5-5-6-----|

for Drop D:

G|------------------------------|

D|------------------------------|

A|------------------------------|

E|------------------------------|

D|--0-0-0-0-1-1-1-1-2-2-2-3-3-3-|

(last time)

G|------------------------------|

D|------------------------------|

A|------------------------------|

E|------------------------------|

D|--0-0-0-0-1-1-1-1-2-2-2-3-----|

Get this song at:  amazon.com sheetmusicplus.com

Share your thoughts

0 Comments found