Alice in Chains

Alice in Chains - Them Bones bass tab

"Them Bones" by Alice in Chains

From Dirt

transcribed by Travis Higgins

travis@primenet.com

http://www.primenet.com/~travis/bass.html

Bascically this song only has 2 main riffs.

The first one is played through the entire song

except for the chorus.

Main riff

||------------------------------------------------|-

||*-----------------------------------------------|-

||*---5-------------------------------------------|-

||---------0--0--1-----1--1--1--2--2--2--3--0--0--|-

---------------------------------------------||-

--------------------------------------------*||-

3-------------------------------------------*||-

-----0--0--1-----1--1--1--2--2--2--3--0--0---||-

Chorus (I feel so alone)

----------------------------------|--

----------------------------------|--

----------------------------------|--

-/8--8--8--8--8--7--7--7--7--7--7/|--

----------------------------------------||

----------------------------------------||

----------------------------------------||

10--10--10--10--10--9--9--9--9--9--9--8\||

And that is all there is to it. Just work on the timing.

Get this song at:  amazon.com

Share your thoughts

0 Comments found