Alice in Chains

Alice in Chains - Song bass tab

Verse

G |--------------------------------|--------------------------------|

D |--------------------------------|--------------------------------|

A |-10--10--9---9---10--10--10--10-|-10--10--9---9---10--10--9---0--|

D |--------------------------------|--------------------------------|

G |--------------------------------|--------------------------------|

D |--------------------------------|--------------------------------|

A |-2---2---2---2---2---2---4---4--|-5---5---5---5---5---5---5---5--|

D |--------------------------------|--------------------------------|

Chorus

G |--------------------------------|--------------------------------|

D |--------------------------------|--------------------------------|

A |-10--10--9---9---5---5---5---10-|-----10--9*--9---9---5---5---0--| *) play a 10 2nd time

D |--------------------------------|--------------------------------|

G |--------------------------------|--------------------------------|

D |--------------------------------|--------------------------------|

A |-2---0---2-------2---0---2---5--|-----5---5---0---5---5---5---5--|

D |--------------------------------|--------------------------------|

Chorus Stop

G |--------------------------------|--------------------------------|

D |--------------------------------|--------------------------------|

A |-2---0---2-------2---0---2---5--|-------------------------0-(12)|

D |--------------------------------|--------------------------------|

Break

G |-16-----------------------------|-16------16------16-------------|

D |--------------------------------|-------------------------17-----|

A |--------------------------------|--------------------------------|

D |--------------------------------|--------------------------------|

G |---------16--16-----------------|-17------17------17------16-----|

D |-17-----------------------------|--------------------------------|

A |--------------------------------|--------------------------------|

D |--------------------------------|--------------------------------|

G |---------16--16--------------17-|-19------17------16-------------|

D |-17-----------------------------|-------------------------17-----|

A |--------------------------------|--------------------------------|

D |--------------------------------|--------------------------------|

G |---------16--16-----------------|-17------17------17------16-----|

D |-17-----------------------------|--------------------------------|

A |--------------------------------|--------------------------------|

D |--------------------------------|--------------------------------|

G |---------16--16--------------17-|-19------17------16-------------|

D |-17-----------------------------|-------------------------17--17-|

A |--------------------------------|--------------------------------|

D |--------------------------------|--------------------------------|

G |---------16--16-----------------|-17------17------17------16-----|

D |-17-----------------------------|--------------------------------|

A |--------------------------------|--------------------------------|

D |--------------------------------|--------------------------------|

G |---------16--16--------------17-|-19------17------16-------------|

D |-17-----------------------------|-------------------------17-----|

A |--------------------------------|--------------------------------|

D |--------------------------------|--------------------------------|

G |---------16--16----16--16--16--16--------------------------------|

D |-17-----------------------------|-----0---0---0-------0---0---0--|

A |--------------------------------|--------------------------------|

D |--------------------------------|--------------------------------|

Instrumental A

G |--------------------------------|--------------------------------|

D |--------------------------------|--------------------------------|

A |-7---7---7---7-------7---7---7--|-7---7---7---7-------7---7---7--|

D |--------------------------------|--------------------------------|

G |--------------------------------|---------------------7-------7--|

D |--------------------------------|--------------------------------|

A |-2---2---2---2-------2---2---2--|-5---5---5---5---5-------5------|

D |--------------------------------|--------------------------------|

Instrumental B

G |--------------------------------|--------------------------------|

D |-----------------9--------------|----------------9---------------|

A |-7---7---7---7-------7---7------|-7---7---7---7-------7---7------|

D |-----------------------------9--|-----------------------------9--|

G |--------------------------------|--------------------------------|

D |-----------------4-----------4--|-------------7---7---5---5---5--|

A |-2---2---2---2-------2---2------|-----5---5----------------------|

D |--------------------------------|--------------------------------|

Verse/Chorus (First bar of verse, Last bar of Chorus)

G |--------------------------------|--------------------------------|

D |--------------------------------|--------------------------------|

A |-10--10--9---9---10--10--10--9--|-10--10--9---9---10--10--9---0--|

D |--------------------------------|--------------------------------|

G |--------------------------------|--------------------------------|

D |--------------------------------|--------------------------------|

A |-2---0---2-------2---0---2---5--|-----5---5---0---5---5---5---5--|

D |--------------------------------|--------------------------------|

Outro A

G |--------------------------------|--------------------------------|

D |--------------------------------|--------------------------------|

A |-7---7---7---7---7---7---7---7--|-7---7---7---7---7---7---7---0--|

D |--------------------------------|--------------------------------|

G |--------------------------------|--------------------------------|

D |--------------------------------|--------------------------------|

A |-2---2---2---2---2---2---2---2--|-5---5---5---5---5---5---5---5--|

D |--------------------------------|--------------------------------|

Outro B

G |--------------------------------|--------------------------------|

D |--------------------------------|--------------------------------|

A |--------------------------------|--------------------------------|

D |-2---2---2---2---2---2---2---2--|-5---5---5---5---5---5---5---5--|

G |--------------------------------|--------------------------------|

D |--------------------------------|--------------------------------|

A |-2---2---2---2---2---2---2---2--|-5---5---5---5---5---5---5---5--|

D |--------------------------------|--------------------------------|

G |--------------------------------|--------------------------------|

D |--------------------------------|--------------------------------|

A |--------------------------------|--------------------------------|

D |-2---2---2---2---2---2---2---2--|-5---5---5---5---5---5---5---5--|

G |--------------------------------|--------------------------------|----|

D |--------------------------------|--------------------------------|----|

A |-2---2---2---2---2---4---4---4--|-5---5---5---5---5---4---4---5--|----|

D |--------------------------------|--------------------------------|-5--|

[00:36] Verse 4x

[01:11] Chorus 2x

[01:29] Verse 2x

[01:46] Chorus 2x (Replace last bar with Chorus Stop)

[02:03] Break

[02:35] Instrumental A 3x

[02:58] Instrumental B

[03:08] Verse 2x

[03:24] Chorus 2x

[03:41] Verse/Chorus (we'll start a gain buttercup)

[03:58] Outro A 2x

[04:14] Outro B 2x

Get this song at:  amazon.com

Share your thoughts

0 Comments found