Alice in Chains

Alice in Chains - Sludge Factory (unplugged) guitar tab

Sludge Factory (unplugged) by Alice In Chains

Tabbed by Steve M. at maxmar@wire.net.au

(http://www.wire.net.au/~maxmar/index.html)

Tuning: down 1/2 step

b = bend h = hammer on

r = release p = pull off

s = slide v = vibrato

INTRO - play throughout the song

F5 Dsus2 D5 D5

e --------0---0--0--0--0--0--0--0--0--0--0--0--0

B --------3---3--3--3--3--3--3--3--3--3--3--3--3

G --------2---2--2--2--2--2--2--2--2--2--2--2--2

D --1--3--0---0--0--0--0--0--0--0--0--0--0--0--0

A --1--3--0---0--0--0--0--0--0--0--0--0--0--0--0

E --1--1------------------------0-----0---------

CHORUS

This is the bit Jerry plays

e ------------------------------------|----------------------------------

B --2h3-s5-s10-8----------------------|--2h3-s5--------------------------

G ---------------7-6-5v---------------|---------5-4-2-4-4b--4-2----------

D ----------------------5-4-3v--------|-------------------------3--------

A -----------------------------3-4s5--|---------------------------3-4s5--

E ------------------------------------|----------------------------------

Once again you see an in...

e ------------------------------------|------------------------------

B --2h3-s5-s10-8----------------------|--2h3-s5-s10-8----------------

G ---------------7-6-5v---------------|---------------7-6-5v---------

D ----------------------5-4-3v--------|----------------------5-4-3v--

A -----------------------------3-4s5--|------------------------------

E ------------------------------------|------------------------------

So afraid you kindly gurgle out...

Here's the chords which Scott plays in time with Jerry.

F5 Cadd9 F5

e --------0--0--0--0--0--0--0--0-----------------------

B --------3--3--3--3--3--3--3--3-----------------------

G --------0--0--0--0--0--0--0--0-----------------------

D --1--3--2--2--2--2--2--2--2--2--3--3--3--3--3--3--3--

A --1--3--3--3--3--3--3--3--3--2--3--3--3--3--3--3--3--

E --1--1--------------------------1--1--1--1--1--1--1--

Once again you see an in...

SOLO

E -------------------------|--------------------------|

B --------6-----6--8-7-6v--|------6---6v------6---6v--|

G --5--7-----7-------------|--7-7---7-----7-7---7-----|

D -------------------------|--------------------------|

A -------------------------|--------------------------|

E -------------------------|--------------------------|

E -------------------------------|--------------------------------|

B ------8-7-6--------------------|--------------------------------|

G --7-7-------7--5h7-5h7-5h7-7v--|--5h7p5-------------------------|

D -------------------------------|--------7-5-7-5-3--5-3-5p3------|

A -------------------------------|----------------------------5v--|

E -------------------------------|--------------------------------|

E --------------------------------------|-------------------|

B --------------------------------------|-------------------|

G --------------------------------------|-------------------|

D --------------------------------------|------3-3s5--7--5--|

A --5p3-----------3--5--5---3---3h5-5v--|--3h5--------------|

E -------3v----5--------------5---------|-------------------|

E --------------------|-------------8--------------|

B --------------------|--6---6--9b-----9r--6-8-----|

G --------5--7-7-7-7--|----7-----|-------------7v--|

D --5--7--------------|---------hold---------------|

A --------------------|---------bend---------------|

E --------------------|----------------------------|

Get this song at:  amazon.com sheetmusicplus.com

Share your thoughts

0 Comments found