Alice in Chains

Alice in Chains - Rotton Apple bass tab

(Play 10 times)

--|---------4--------2------------|--------4-----2--4-0-------0h2|--

--|0--2--2-----2--0--0------------|0h2--2----2p0-0------0-2h4----|--

--|-------------------------------|------------------------------|--

--|-------------------------------|------------------------------|--

1st Verse

Hey ah na na... (Play 6 times simile)

--|---------4--------2------------|--------4-----2--4-0-------0h2|--

--|0--2--2-----2--0--0------------|0h2--2----2p0-0------0-2h4----|--

--|-------------------------------|------------------------------|--

--|-------------------------------|------------------------------|--

2nd, 3rd & 4th Verses

Hey ah na na... (Play 4 times simile)

--|---------4--------2------------|--------4-----2--4-0-------0h2|--

--|0--2--2-----2--0--0------------|0h2--2----2p0-0------0-2h4----|--

--|-------------------------------|------------------------------|--

--|-------------------------------|------------------------------|--

Chorus

Yeah...

--|--------9--9p7---------7-------|------------------------------|--

--|---------------9--7h9----------|10--10-10-10--109---7---5----|--

--|7--(7)-------------------------|------------------------------|--

--|-------------------------------|------------------------------|--

--|-------------------------------|------------------------------|--

--|-------------------------------|-------(10)-10-10-10---------|--

--|7--------7-------------3----5-7|---------------------5-5-5-6-7|--

--|---0--0-----0--0--(0)----(7)---|8--8-8------------------------|--

--|--------------9p7--------7h9---|------------------------------|--

--|------------------9--7h9-------|10--10-10-10-x-9-9/12---------|--

--|-------7--7-7------------------|------------------------------|--

--|0--0-0-------------------------|------------------------------|--

(2nd time) To Coda I

(3rd time) To Coda II

--|-------------------------------|--------------9p7----------7h9|--

--|13--14--14---------------------|-------------------9--7h9-----|--

--|-------------------------------|------7--7-7------------------|--

--|-------------------------------|0--0--------------------------|--

--|-------------------------------|---------4--------2-----------|--

--|10-10--10-10--109--7--5-5-5---|0--2--2-----2--0--0-----------|--

--|-------------------------------|------------------------------|--

--|-------------------------------|------------------------------|--

(Last time) Coda 1

--|--------4------2--4-0-------0h2|------------------------------|--

--|0h2--2-----2p0-0------0-2h4----|10-10--10-10--109--7--5-5-5--|--

--|-------------------------------|------------------------------|--

--|-------------------------------|------------------------------|--

Guitar Solo

--|-----4------2------------------|-------4-----2-2-4-0-------0h2|--

--|0h2-----(0)-0-----0---0--------|0h2--2---2-0-0-------0-2h4----|--

--|-------------------------------|------------------------------|--

--|-------------------------------|------------------------------|--

--|--------4--------2-------------|------4-----2--4-0------0h2---|--

--|0h2--2-----2--0--0-------------|0h2-2---2-0-0-------2h4-------|--

--|-------------------------------|------------------------------|--

--|-------------------------------|------------------------------|--

Interlude

let ring--# let ring----------# let ring--#

--|------9-----11/14--------------|------9-----11/12-------------|--

--|---9-----9---------12----(12)-|---9-----9--------12--12----12|--

--|7------------------------------|7------------------------12---|--

--|-------------------------------|------------------------------|--

let ring----------#

--|------9----11/12---------------|------9-----11/12-------------|--

--|---9-----9-------12---(12)----|---9-----9---------12---------|--

--|7------------------------------|7-----------------------------|--

--|-------------------------------|------------------------------|--

--|---------1412--12------------|------------------------------|--

--|12/14--(14)12--12------------|------------------------------|--

--|-------------------------------|------------------------------|--

--|-------------------------------|------------------------------|--

Coda II

--|-------------------------------|------------------------------|--

--|-------------------------------|------------------------------|--

--|-------------------------------|------------------------------|--

--|-------------------------------|------------------------------|--

--|-------------------------------|------4-----2-----------------|--

--|10-10--10-10--109--7--5-5-5---|0-2-2---2-0-0-----------------|--

--|-------------------------------|------------------------------|--

--|-------------------------------|------------------------------|--

Outro

Hey ah na na...

--|--------4------2--4-0-------0h2|---------4--------2-----------|--

--|0h2--2-----2p0-0------0-2h4----|0--2--2-----2--0--0-----------|--

--|-------------------------------|------------------------------|--

--|-------------------------------|------------------------------|--

(Play 12 times simile and fade)

--|--------4-------2--------------|4--0----------0h2-------------|--

--|0h2--2-----2p0--0--------------|------0--2h4------------------|--

--|-------------------------------|------------------------------|--

--|-------------------------------|------------------------------|--

Get this song at:  amazon.com

Share your thoughts

0 Comments found