Alice in Chains

Alice in Chains - Rooster (detailed) bass tab

intro:

G )--------------------------------------------------------------------------------( \

D )------------6/8-6---------------------------------------------------------------( |

A )-6h8-8------------6h8-8-8-------------------------------------------------------( | x4

E )---------4----------------4-4-4-4-4-4-4-44--------------------------------------( /

^only play this note the 2nd and 4th time

verse:

"Ain't found a way to kill me yet..."

G )--------------------------------------------------------------------------------( \

D )--------------------3-----------------------3------------------3----------------( |

A )-6h8-8-----3-2-1------------------------------------------------------------8p6-( | x2

E )--------4-------41-------4-4-4-4-4-4-4-0-1-------4--------0-1-------4-----------( /

only play this the 1st time^^^

pre-chorus:

"Yeah, they come to snuff the rooster..."

G )--------------------------------------------------------------------------------(

D )-------------3---6------------3------------3-------------------------3---6---6\-(

A )-1---3---4-----------------------------------------------1---3---4--------------(

E )------------------------\0h1------0h1-0h1-0----0h1-1-11-------------------------(

chorus:

"Ya know we ain't gonna die..."

G )--------------------------------------------------------------------------------( \

D )----------------------3---------6---6-6-6\--------------------------------------( |

A )-6h8-8-8-----3-2-1--------------------------------------------------------------( | x2

E )---------4--------41-----/4-4-4-------------------------------------------------( /

bridge: _______________ _______________

|1. 2. |3.

G )--------------------------------------------------------------------------------(

D )----------------------3----------------------3-3-33-----------------------------(

A )-6h8-8-88----3-2-1--------------------------------------------------------------(

E )---------4--------41------4-4-4-444-4-4-44--------------------------------------(

pre-chorus:

"Yeah, they come to snuff the rooster..."

G )--------------------------------------------------------------------------------(

D )-------------3---6------------3------------3-------------------------3---6---6\-(

A )-1---3---4-----------------------------------------------1---3---4--------------(

E )------------------------\0h1------0h1-0h1-0----0h1-1-11-------------------------(

chorus: __________________ _______________

"Ya know..."|1. |2.

G )--------------------------------------------------------------------------------(

D )----------------------3---------6---6-6-6\-----------6--------------------------(

A )-6h8-8-8-----3-2-1--------------------------------------------------------------(

E )---------4--------41-----/4-4-4----------------4--------------------------------(

verse:

"Walkin' tall machine gun man..."

G )--------------------------------------------------------------------------------( \

D )--------------------3-----------------------3------------------3----------------( |

A )-6h8-8-----3-2-1----------------------------------------------------------------( | x2

E )--------4-------41-------4-4-4-4-444-4-0-1-------4----4----0-1-------4--44-4-44-( /

^only play this note the 1st time

pre-chorus:

"Yeah, they come to snuff the rooster..."

G )--------------------------------------------------------------------------------(

D )-------------3---6------------3------------3-------------------------3---6---6\-(

A )-1---3---4-----------------------------------------------1---3---4--------------(

E )------------------------\0h1------0h1-0h1-0----0h1-1-11-------------------------(

chorus: __________________ _______________

"Ya know..."|1. |2.

G )--------------------------------------------------------------------------------(

D )----------------------3---------6---6-6-6\-----------6--------------------------(

A )-6h8-8-------3-2-1--------------------------------------------------------------(

E )---------4--------41-----/4-4-4---------------/4--------------------------------(

outro:

G )--------------------------------------------------------------------------------(

D )------------6/8-6------------------------------------6-8--6---------------------(

A )-6h8-8------------6h8-8-------------------6h8-8--------------8-----8-8\---------(

E )---------4----------------4------4------4---------4-------------------------4*--(

Get this song at:  amazon.com

Share your thoughts

0 Comments found