Alice in Chains

Alice in Chains - Nutshell bass tab

Alice In Chains: Nutshell (Unplugged) & (Original)

Tabbed By: Slap Happy (New to the BASS WORLD)

If you have any corrections,then your on crack because these are right

email me at: khyro69@aol.com

Check out a new and upcoming band called Bitterseason

www.bitterseason.com

========================================================================

If you don't feel like tuning down, just play everything 1 fret lower

EXAMPLE: Heres the first line tuned down to the Alice in Chains liking

Gb|---------|------------------|7-5------------------|------------------|

Db|---------|--------------7-5~|----7-5----------7-5~|--------------7-5~|

Ab|---------|3333-5-7~-7-5-----|--------5-7~-7-5-----|3333-5-7~-7-5-----|

Eb|---------|------------------|---------------------|------------------|

Heres the first line in standard tuning

G|---------|------------------|6-4------------------|------------------|

D|---------|--------------6-4~|----6-4----------6-4~|--------------6-6~|

A|---------|2222-4-6~-6-4-----|--------4-6~-6-4-----|2222-4-6~-6-4-----|

E|---------|------------------|---------------------|------------------|

=========================================================================

Alice In Chains: Nutshell (Unplugged)

~ = let note ring

Bass comes in on the 2nd time!!!!!!

Gb|---------|------------------|7-5------------------|------------------|

Db|---------|--------------7-5~|----7-5----------7-5~|--------------7-5~|

Ab|---------|3333-5-7~-7-5-----|--------5-7~-7-5-----|3333-5-7~-7-5-----|

Eb|---------|------------------|---------------------|------------------|

(those are 12 and 11, not 1 & 2)

Gb|------------------|12~-121211----------------|------------------|

Db|--------------7-5~|----------12----------7-5~|--------------7-5~|

Ab|3333-5-7~-7-5-----|------------12-10~/7-5----|3333-5-7~-7-5-----|

Eb|------------------|--------------------------|------------------|

Gb|7-5------------------|------------------|7-5------------------|

Db|----7-5----------7-5~|--------------7-5~|----7-5----------7-5~|

Ab|--------5-7~-7-5-----|3333-5-7~-7-5-----|--------5-7~-7-5-----|

Eb|---------------------|------------------|---------------------|

Gb|12~-121211---------------|------------------|7-5------------------|

Db|---------12----------7-5~|--------------7-5~|----7-5----------7-5~|

Ab|-----------12-10~/7-5----|3333-5-7~-7-5-----|--------5-7~-5-7-----|

Eb|-------------------------|------------------|---------------------|

Gb|------------------|------------------|12~121211----------------|

Db|--------------7-5~|--------------7-5~|---------12----------7-5~|

Ab|3333-5-7~-7-5-----|3333-5-7~-7-5-----|-----------12-10~/7-5----|

Eb|------------------|------------------|-------------------------|

Gb|------------------|7-5------------------|12~121211----------------|

Db|--------------7-5~|----7-5----------7-5~|---------12----------7-5~|

Ab|3333-5-7~-7-5-----|--------5-7~-7-5-----|-----------12-10~/7-5----|

Eb|------------------|---------------------|-------------------------|

Gb|----------|

Db|----------|

Ab|3333-5-7~-|

Eb|----------|

=============================================================

Alice In Chains: Nutshell (Original)

(Played alittle faster and a little different variation

than the Unplugged Version)

~ = let note ring

Bass comes in on the 2nd time!!!!!!

Gb|---------|------------------|------------------|7-5------------------|

Db|---------|--------------7-5~|--------------7-5~|----7-5----------7-5~|

Ab|---------|3333-5-7~-7-5-----|3333-5-7~-7-5-----|--------5-7~-7-5-----|

Eb|---------|------------------|------------------|---------------------|

(those are 12 and 11, not 1 & 2)

Gb|------------------|12~-121211----------------|7-5------------------|

Db|--------------7-5~|----------12----------7-5~|----7-5----------7-5~|

Ab|3333-5-7~-7-5-----|------------12-10~/7-5----|--------5-7~-7-5-----|

Eb|------------------|--------------------------|---------------------|

Gb|12~-121211----------------|------------------|------------------|

Db|----------12----------7-5~|--------------7-5~|--------------7-5~|

Ab|------------12-10~/7-5----|3333-5-7~-7-5-----|3333-5-7~-7-5-----|

Eb|--------------------------|------------------|------------------|

Gb|------------------|12~-121211----------------|7-5------------------|

Db|--------------7-5~|----------12----------7-5~|----7-5----------7-5~|

Ab|3333-5-7~-7-5-----|------------12-10~/7-5----|--------5-7~-7-5-----|

Eb|------------------|--------------------------|---------------------|

Gb|------------------|7-5------------------|12~-121211----------------|

Db|--------------7-5~|----7-5----------7-5~|----------12----------7-5~|

Ab|3333-5-7~-7-5-----|--------5-7~-7-5-----|------------12-10~/7-5----|

Eb|------------------|---------------------|--------------------------|

Gb|------------------|7-5------------------|------------------|

Db|--------------7-5~|----7-5----------7-5~|--------------7-5~|

Ab|3333-5-7~-7-5-----|--------5-7~-7-5-----|3333-5-7~-7-5-----|

Eb|------------------|---------------------|------------------|

start fading out

Gb|12~-121211----------------|------------------|7-5------------------|

Db|----------12----------7-5~|--------------7-5~|----7-5----------7-5~|

Ab|------------12-10~/7-5----|3333-5-7~-7-5-----|--------5-7~-7-5-----|

Eb|--------------------------|------------------|---------------------|

Gb|------------------|

Db|--------------7-5~|

Ab|3333-5-7~-7-5-----|

Eb|------------------|

Get this song at:  amazon.com

Share your thoughts

0 Comments found