Alice in Chains

Alice in Chains - Nothin' Song guitar tab

#

Nothin' Song by Alice In Chains

From: Jeffrey K. Krinks (krinks@apk.net)

Here is the near complete Nothin Song from the self titled album.

D7b5 D Dtype2

x x x

3 0 x

2 0 0

0 0 0

x 0 0

x 0 0

open D tuning and a half step down: Db, Ab, F, Db, Ab, Db

gtr. 1: D7b5 D

gtr. 2:

-------------------------------

----------15---------12--------

----------14---------12--------

-----------0---------12--------

-------------------------------

-------------------------------

repeat that a bunch, then riff A:

hold bend

-------------------------------0------------

-2b--2-2-2-2--r2--3-2br(2)--------0---------

---------------------------2b---------0-----

--------------------------------------0-----

--------------------------------------0-----

--------------------------------------0-----

repeat that in the verses, then:

"workin so late?"

----------------------0------0------0------0------------------------------

-----3-2br(2)---2b------0------0------0------0----------------------------

--------------------------b2-----b2-----b2-----b2r(2)---------------0-----

-------------------------------------------------------2-2-2-2-2-2--0-----

-------------------------------------------------------2-2-2-2-2-2--0-----

-------------------------------------------------------2-2-2-2-2-2--0-----

the part during the chorus is:

gtrs 1 + 2:

----------------------------------------------

-----------15b~~~~~~~~------------------------

-0---------14b~~~~~~~~-------------------------

-0----------0----------------------------------

-0----------0----------------------------------

-0---------------------------------------------

gtr. 3: hold bend

-------------------------------------------------

-------------------------------------------------

-8--8--8--8--8b--8--8--8r(8)---------------------

-------------------------------------------------

-------------------------------------------------

-------------------------------------------------

(gtr 3 w/ flange)

Get this song at:  amazon.com sheetmusicplus.com

Share your thoughts

0 Comments found