Alice in Chains

Alice in Chains - No Excuses bass tab

"No Excuses"

by Alice in Chains from the album "Jar of Flies"

Tabbed by Dave Miller (dwm3@po.cwru.edu)

It seems to me that this song is played tuned down

a little bit. Anyway...that's how I tabbed it. It's an easy

song to play, but sounds really cool. Enjoy!

Verse

||-------------4/6--4--------------------4/6--4-----------

||*--------------------4--2--4-------------------4--2--4--

||*---2--2-------------------------2--2-------------------

||--------------------------------------------------------

It's alright.... There comes a time....

Chorus (A)

||------------------------------------------

||*-----------------------------------------

||*-----------------------------------------

||----3--3--3--2--0--5--5--5--0--5--0--5--0-

Everyday it's something...

------------------------------------

------------------------------------

------------------------------------

-7--7--7--7--5--7--7--7--7--7--7--5--

Chorus (B)

||------------------------------------------

||*-----------------------------------------

||*-----------------------------------------

||----3--3--3--2--0--5--5--5--5--5--5--5--7-

Find me sittin' by myself...

--------------------------------------

---------------------------------------

-------------------------------------2-

-0--0--0--0--0--0--0--0--0--0--0--5----

Chorus alternates A,B

Get this song at:  amazon.com sheetmusicplus.com

Share your thoughts

0 Comments found