Alice in Chains

Alice in Chains - Killer Is Me (unplugged) guitar tab

Killer Is Me (unplugged) by Alice In Chains

Tabbed by Steve M. at maxmar@wire.net.au

(http://www.wire.net.au/~maxmar/index.html)

Tuning: down 1/2 step

INTRO + VERSE - play throughout the song

e ---0----0---0---0---0--0--0--0--0--0--0--

B --10---10--10--10--10--6--6--6--6--6--6--

G --12---12--12--12--12--8--8--8--8--8--8--

D --11---11--11--11--11--7--7--7--7--7--7--

A ---0----0---0---0---0--0--0--0--0--0--0--

E ---0----0---0---0---0--6--6--6--6--6--6--

w/thumb

Mike plays something in the background but I haven't got round

to working it out yet.

CHORUS

Here are the chords used

G5 Gb5 F5

e ----- ----- -----

B ----- ----- -----

G ----- ----- -----

D --5-- --4-- --3--

A --5-- --4-- --3--

E --3-- --2-- --1--

G5 Gb5

Oh yeah can i start over

G5 Gb5 F5

Oh yeah can i start over and get over it.

Get this song at:  amazon.com

Share your thoughts

0 Comments found