Alice in Chains

Alice in Chains - Junkhead bass tab

Junkhead

by Alice in Chains

Tuning: Eb, Ab, Db, Gb

This song pretty much has only two parts, verse and chorus.

Verse x8

|-----------------------------------|

|*---------------------------------*|

|*-2----1----1---------------------*|

|---------------3---2----1----1--0--|

Chorus x4

|--------------------------------------|

|*-------------------------3-----------|

|*-0----0--0--0--3---3--5-----5--3--0--|

|--------------------------------------|

|--------------------------------------|

|-------------------------------------*|

|-------------------------------------*|

|-3----3--3--3--1----1--1--1--1--1--1--|

And for the solo, just play the chorus again.

Questions, Comments, etc. email

Get this song at:  amazon.com

Share your thoughts

0 Comments found