Alice in Chains

Alice in Chains - I Know Somethin guitar tab

tuning: all strings flattened

The only tab I could find for this song was archived under Stone Temple Pilots so I posted

my own tab

INTRO: figure out strumming on your own--its pretty easy & simple

|--------------------------

|-10/12-1212-12-12---------

|--9/11-1111-11-11---------

|--7/-9--9-9--9--9---------

|--7/-9--9-9--9--9---------

|--------------------------

AND THEN...

repeat

|-----------------------------------------------------------------------

|---------------------------------------------------------------------

|--------x-7-5-------5----------------------------x-7-5--------------------

|--------x-7-5-------5--7-5-----------------------x-7-5--7-5-----------------

|--5-6-7-------3h5/7--------7-5-3-----------5-6-7------------7-5-3v------------

|--3-4-5--------------------------5v--------3-4-5------------------------------

P.M. ... ...

That's all I've figured out.

-Please rate

Get this song at:  amazon.com sheetmusicplus.com

Share your thoughts

0 Comments found