Alice in Chains

Alice in Chains - Heaven Beside You (unplugged) guitar tab

Heaven Beside You (unplugged) by Alice In Chains

Tabbed by Steve M. at maxmar@wire.net.au

(http://www.wire.net.au/~maxmar/index.html)

Tuning: down 1/2 step

b = bend h = hammer on

r = release p = pull off

s = slide v = vibrato

INTRO - Gtr 1, play this 10 times

e -------------------------------------

B -------------------------------------

G -------------------------------------

D -----5br-----------0--------------0--

A ----------7-----7-----7--------5-----

E --0----------5-----------5--3--------

CHORUS

Aadd9 G6 Badd11 Badd4 Aadd9

e --0--0--0--0--0--0--0--0--0--0--0--0--0--0--0--0--0--0--0--0--0--0--0--

B --0--0--0--0--0--0--0--0--0--0--0--0--0--0--0--0--0--0--0--0--0--0--0--

G --6--6--6--6--6--4--4--4--4--4--9--9--9--9--9--8--8--8--8--8--6--6--6--

D --7--7--7--7--7--5--5--5--5--5-10-10-10-10-10--9--9--9--9--9--7--7--7--

A --7--7--7--7--7--5--5--5--5--5-10-10-10-10-10--9--9--9--9--9--7--7--7--

E --5--5--5--5--5--3--3--3--3--3--8--8--8--8--8--7--7--7--7--7--5--5--5--

Like the coldest winter chill, heaven beside you, hell within...

BRIDGE - play this 2 times

e -------------------------------------------------------------------

B -------------------------------------------------------------------

G ------0-------0-------0-------0-------0-------0-------0-------0----

D -------------------------------------------------------------------

A --3-3---3-3-3---3-4-4---4-4-4---4-5-5---5-5-5---5-6-6---6-6-6---6--

E --4-4---4-4-4---4-5-5---5-5-5---5-6-6---6-6-6---6-7-7---7-7-7---7--

So there's problems in your life, that's ***ed up, and I'm not blind...

Play this several times where needed

Em

e --0-0-0-------------------------

B --0-0-0-------------------------

G --0-0-0-------------------------

D --2-2-2---2v-----------0-----0--

A --2-2-2--------1b----2-----1----

E --0-0-0-0----0-----3-----2------

SOLO

e ------------------|-----------------------------------------|

B ------------------|-----------------------------------------|

G --14v--12-14-12v--|-----12----------12-14-14b--14-14-14-12--|

D ------------------|--14----14-12h14-------------------------|

A ------------------|-----------------------------------------|

E ------------------|-----------------------------------------|

e --------------------------------------|---------------------------|

B --15-15-15s17s15--12-15-12----12------|---------------------------|

G ---------------------------14----14v--|--12-----------------------|

D --------------------------------------|-----14v--12-14------------|

A --------------------------------------|----------------13s12-10v--|

E --------------------------------------|---------------------------|

Here's the next bit Jerry plays in the solo, and he plays

this again at the end of the song - play several times

let ring throughout

e --0----------------------|--0----------------------|

B -----12------------------|-----12------------------|

G ---------15--15------15--|--------15--15------12v--|

D -----------------14------|----------------14-------|

A -------------------------|-------------------------|

E -------------------------|-------------------------|

Get this song at:  amazon.com sheetmusicplus.com

Share your thoughts

0 Comments found