Alice in Chains

Alice in Chains - Got Me Wrong bass tab

"Got Me Wrong"

by Alice in Chains from the album "Sap"

Tabbed by Dave Miller (dwm3@po.cwru.edu)

I believe this is played tuned down. That is how it

is tabbed anyway. You can tell the tone by listening

to the song.

Intro

||-------------------------------------------------

||*-----------4h6----------------------------------

||*---4h6----------------6p4-----------------------

||-------------------------------4-----------------

Verse

||-----------------------------------------------------------

||*----------------------------------------------------------

||*------------------------------------2---------------------

||---4---4-----0--0--0--2-----0-----4-----4-----0--0--0-----2

Yeh..... ...it goes away

Chorus

||-------------------------------------------------

||*------------------------------------------------

||*---5--5-----3--3-----4--4-----------------------

||-------------------------------5--5-----4--4-----

As of now...

Bridge

||---------------------------------------------------------

||*--------------------------------------------------------

||*--------------------------------------------------------

||---2--2--2--2--2--2--2--2--2--2--2--2--4--4--4--4--4--4--...

That don't last forever....(leads back into verse)

Get this song at:  amazon.com

Share your thoughts

0 Comments found