Alice in Chains

Alice in Chains - Got Me Wrong Acoustic guitar tab

----------------------------------------------------------------------------

Got Me Wrong - Alice In Chains

----------------------------------------------------------------------------

Tabbed by: Brack

Tune Down 1/2 a step

ntro/Verse/Main Riff

e|-4--4----0--0-0-0-0--2----------------------------------------------------|

B|-4--4--0-0--0-0-0-0--2----------------------------------------------------|

G|-5--5--1-1--1-1-1-1--3-X-X------------------------------------------------|

D|-6--6--2-2--2-2-2-2--4-X-X------------------------------------------------|

A|-6--6--2----2-2-2-2--4-X-X------------------------------------------------|

E|-4--4--0----0-0-0-0--2-X-X------------------------------------------------|

1st Solo Gtr.2

e|--------------------------------------------------------------------------|

B|-----------6-6b---6------------4-4b---6---4-------------------------------|

G|---------4-6-6b-4-6-4----------4-4b---6---4-------------------------------|

D|---6-4h6--------------6-4---4-------6---6---6-4---------------------------|

A|--------------------------6---------------------6-5-4---------------------|

E|------------------------------------------------------7-6-4---------------|

Chorus

e--------1---------1---------5----------5---|

B--7--7--1--1-1--1-1--6---6--5--5-5--5--5---|

G--7--7--2--2-2--2-2--6---6--6--6-6--6--6---|

D--7--7--3--3-3--3-3--6---6--7--7-7--7--7---|

A--5--5--3--3-3--3-3--4---4--7--7-7--7--7---|

E--------1--1-1--1-1---------5--5-5--5--5---|

2nd Solo Gtr 2 3rd Solo Gtr 2

e|-------------------------------/--4-4-------------------------------------|

B|-6-4---------------------------/--4-4-6-------6-4-------------------------|

G|-6-4---------------------------/------6-4-----6-4-------------------------|

D|------6-4----------------------/----------6-4-----6-4---------------------|

A|----------6-4b-2-4-2-----------/----------------------6-4b-2--------------|

E|---------------------0-0-0-0---/-----------------------------0-0----------|

Figure out strumming with these chords

e--0--0--2--2----5--5--5-5--5--5--5--5-----|

B--0--0--2--2-2--5--5--5-5--5--5--5--5-----|

G--1--1--3--3-3--6--6--6-6--6--6--6--6-----|

D--2--2--4--4-4--7--7--7-7--7--7--7--7-----|

A--2--2--4--4-4--7--7--7-7--7--7--7--7-----|

E--0--0--2--2-2--5--5--5-5--5--5--5--5-----|

That dont last forever.....................

e--2--2--2--2--2--2--2--5--5--5--5-5--5--5---|

B--2--2--2--2--2--2--2--5--5--5--5-5--5--5---|

G--3--3--3--3--3--3--3--6--6--6--6-6--6--6---|

D--4--4--4--4--4--4--4--7--7--7--7-7--7--7---|

A--4--4--4--4--4--4--4--7--7--7--7-7--7--7---|

E--2--2--2--2--2--2--2--5--5--5--5-5--5--5---|

4th solo Gtr 2

e|--------------------------------------------------------------------------|

B|-/7-4---------------4-6-4-------------------------------------------------|

G|-/8-4-6p4-----------4-6-4-------------------------------------------------|

D|----------6-4---4-6-------6-4---------------------------------------------|

A|--------------6---------------6-4b-2-4-2b-------4-4b-2--------------------|

E|------------------------------------------4-2-4--------4-2----------------|

5th solo Gtr 2

e|--------------------------------------------------------------------------|

B|-/8-8-8-8-8-8-8-8-8-8-8---------------------------------------------------|

G|-/9-9-9-9-9-9-9-9-9-9-9/7-6-----------------------------------------------|

D|----------------------------7-5-------------------------------------------|

A|--------------------------------------------------------------------------|

E|--------------------------------------------------------------------------|

6th solo Gtr 2

e|-5-5----------------------------------------------------------------------|

B|-5-5--7-------7--5--------------------------------------------------------|

G|------7-5h6---7--5h6-7-5--------------------------------------------------|

D|------------7------------7/-----------------------------------------------|

A|--------------------------------------------------------------------------|

E|--------------------------------------------------------------------------|

7th solo Gtr 2

e|--------------------------------------------------------------------------|

B|-/8-8-8-8-8-8-8-8-8-8-8---------------------------------------------------|

G|-/9-9-9-9-9-9-9-9-9-9-9/7-6-----------------------------------------------|

D|----------------------------7-5-------------------------------------------|

A|--------------------------------------------------------------------------|

E|--------------------------------------------------------------------------|

8th solo Gtr 2 9th solo Gtr 2

e|-5-------------------------/-4--------------------------------------------|

B|-5-7-----------------------/-4-6-4-----6----------------------------------|

G|---7-5h6-------------------/---6-4h5---6-4--------------------------------|

D|---------7-5---------------/---------6-----6------------------------------|

A|-------------7-5p0---------/-----------------4-2b-------------------------|

E|-------------------2-2-2---/----------------------4-4---------------------|Added by tabs-database.com and our distinguished partners

Get this song at:  amazon.com sheetmusicplus.com

Share your thoughts

0 Comments found