Alice in Chains

Alice in Chains - Godsmack bass tab

Bass Tab Characters:

h = hammer on

p = pull of

/ = slide up

= slide down

() = let ring

= harmonic

P = pop

S = slap

x = mute

Its a great and easy song, fun to play around, but you have to listen to the cd, so you

can get the timing and when the riffs changes.

Use your fingers to get a better sound.

Intro/Verse/Guitar Solo

**intro comes on 3rd measure**

Gb|[-----------------------------------]|

Db|[-*-------------------------------*-]|

Ab|[-*-1-1-1-----------------------2-*-]|

Eb|[--------2-2-2-2-0--0-1-1-1-2-2-----]|

Pre-Chorus

(told you no one is blind)

Gb|[----------------------------------]|

Db|[----------------------------------]|

Ab|[----------------------------------]|

Eb|[--2-2-2-2---0-0-0-0-0-0-0-0-0-----]|

Fill

(what you hide)

Gb|[----------------------------------]|

Db|[----------------------------------]|

Ab|[----------------------------------]|

Eb|[--2-3----3----5-5-5-5-------------]|

Chorus

(what in gods name have you done)

* you can hammer the E on the 7th fret. (5h7)

Gb|[----------------------------------]|

Db|[*--------------------------------*]|

Ab|[*--5-5-5-5-5-7-------------------*]|

Eb|[----------------------------------]|

The End

Gb|[----------------------------------]|

Db|[----------------------------------]|

Ab|[---7-----------------------------]|

Eb|[----------------------------------]|

Get this song at:  amazon.com

Share your thoughts

0 Comments found