Alice in Chains

Alice in Chains - Frogs (unplugged) guitar tab

#---------------------------------PLEASE NOTE-----------------------------------#

# song. You may only use this file for private study, scholarship, or research.#

Frogs (unplugged) by Alice In Chains

Tabbed by Steve M. at maxmar@wire.net.au

Tuning: down 1/2 step

b = bend

r = release

s = slide

v = vibrato

INTRO - play several times

e --------------------------------------------------

B --------------------------------------------------

G --------------------------------------------------

D --------5--------5--------5--------5-----5-----5--

A -----4--------4--------4--------4-----------------

E --0--------0--------0--------0--------4-----3-----

PRE CHORUS - play 3 times

G5 G5

e --------------------------------------

B --------------------------------------

G --------------------------------------

D --------5--------5--------5--------5--

A -----5--------4--------5--------4-----

E --3--------3--------3--------3--------

CHORUS - play 4 times

Cadd9

e ---------------------0--0--0--0--0--0--0--

B ---------------------3--3--3--3--3--3--3--

G --3--3--3--3--5--3---0--0--0--0--0--0--0--

D --3--3--3--3--3--3---2--2--2--2--2--2--2--

A --3--3--3--3--3--3---3--3--3--3--3--3--3--

E --4--4--4--4--4--4------------------------

Why's it have to be this way?

SOLOS

Jerry plays this at 2:31 and again at 4:10

e ------------8-10-10b-10-8-------10----|------------8-10-10b--10-8-10b--|

B ----------8---------------8v--8----8--|----------8---------------------|

G ------8-7-----------------------------|------8-7-----------------------|

D --5-6---------------------------------|--5-6---------------------------|

A --------------------------------------|--------------------------------|

E --------------------------------------|--------------------------------|

Be this way... Be this way..

G6

e ------------8-10-10b-10-8-------10----|------------8-10--0--(0)--|

B ----------8---------------8v--8----8--|----------8-------0--(0)--|

G ------8-7-----------------------------|------8-7---------4--(4)--|

D --5-6---------------------------------|--5-6-------------5--(5)--|

A --------------------------------------|------------------5--(5)--|

E --------------------------------------|------------------3--(3)--|

Be this way... Be this way.

At 5:53 Jerry plays this riff 8 times

e --------------------------------------

B --------------------------------------

G --3b--------3-------------------------

D ------4--5-----------4----------------

A ---------------4--5-----------4br-----

E ------------------------3--5-------0--

Jerry then continues with harmonics as below

Harm... Harm

e 5

B --7--7--7--7--7--7---7--7-- etc, then

G \

D you get the higher pitched sound on the

A first note by pressing the string down

E and slightly to the right of the 7th fret.

Get this song at:  amazon.com sheetmusicplus.com

Share your thoughts

0 Comments found