Alice in Chains

Alice in Chains - Frogs bass tab

Tuning: Eb, Ab, Db, Gd

|part 1: |part 2:

Gb|---9/12-------|---9/1312-------|

Db|--------------|-----------------| play this once, then part 1 again, then this:

Ab|--------------|-----------------|

Eb|0~--------4-3-|0~-----------4-3-|

Gb|---9/12-----------------|

Db|------------------------| play this then straight into the chorus.

Ab|------------------------|

Eb|0~--------5-4-3-33-33-33|

Chorus:

Gb|--------------------------------|

Db|--------------------------------| play this and the on the last bar play this:

Ab|--------------------------------|

Eb|34-4-4-4-4-6--8-88-888888-------|

Get this song at:  amazon.com sheetmusicplus.com

Share your thoughts

0 Comments found