Alice in Chains

Alice in Chains - Fairy Tale Love Story bass tab

Alice in Chains

Fairy Tale Love Story

EbAbDbGb

Intro:

|------------|

|*------220-*|

|*----32----*|

|-2-0--------|X9

Verse:

|1 |2 |

|---------------------|---------------------|-------------------------|

|*---------4p0--------|---------------------|------------------------*|

|*--------------------|-----------0000------|-----------0000---------*|

|-2-0-00-2-----22-2-0-|-4444-2222------1111-|-4444-2222------11111111-|

(Pop)

Chorus:

|---------------------------------------|

|*-------------------------------------*|

|*---------2-2222222-------------------*|

|-00000000-----------1-1111010-00000000-|

|--------------------|

|*-3----------------*|

|*---2--------------*|

|------3210-00000000-|X4

|----------||-------|

|*--------*||-------|

|*-2------*||-2-----|

|---003300-||--0-0~-|

Intro:

Verse:

Chorus:

Solo:

|------------|

|*------2-0-*|

|*----32----*|

|-2-0--------|X9

Bridge:

|--------------------------------------|

|*-------------------------------------|

|*-22222222-22222222-------------------|

|--------------------00000000-00000000-|

|--------------------------------------|

|-------------------------------------*|

|-44444444-44444444-00000000-00000000-*|

|--------------------------------------|

Outro:

|------------|

|*------220-*|

|*----32----*|

|-2-0--------|X11

|--------------|

|--------------|

|-2-3-0000-----|

|----------0~~~|

Get this song at:  amazon.com sheetmusicplus.com

Share your thoughts

0 Comments found