Alice in Chains

Alice in Chains - Confusion guitar tab

#

Confusion by Alice In Chains

From: Enrico Corinti (eddie@ascu.unian.it)

Tuning: Tune down 1/2 step

It begins with this part:

B A

||-------------------------

||-------------------------

||------8---------6--------

||----9--8-8-----7--7-7----

||--9-----8-----7----7-----

||-7-----------5-----------

Then there's the part when the 2nd guitar comes with distortion:

Ebm9 B A

||-------6----------------------5--------

||-----6--6----------------------5-------

||----8----8-----8-----------6----6------

||---8----------9---9-9-----7-----------

||--6----------9-----9-----7------------

||------------7-----------5-------------

This part is the verse part, too!!!

Play this untill the pre-chorus part (listen it on cd).

The Pre-Chorus part is:

F# A B E F

||--2-2-2-2----5---7------------

||--2-2-2-2----5---7------------

||--3-3-3-3----6---8------------

||--4-4-4-4----7---9--2-3-------

||--4-4-4-4----7---9--2-3-------

||--2-2-2-2----5---7--0-1-------

This is the part when Layne sings "...yeah, I wanna set you free..Ah..".

Then there's the real chorus:

F# G# A B

||-2--4----5--7-------

||-2--4----5--7-------

||-3--5----6--8-------

||-4--6----7--9-------

||-4--6----7--9-------

||-2--4----5--7-------

Get this song at:  amazon.com sheetmusicplus.com

Share your thoughts

0 Comments found