Alice in Chains

Alice in Chains - Brother bass tab

ARTIST: Alice In Chains - Brother

Tabbed by: Slap Happy

EMAIL: khyro69@aol.com

(email me, I love to hear what you have to say, good or bad)

-------------------------------------------------------------------------

-------------------------------------------------------------------------

I know this isn't totaly correct, but its how I play it and it sounds

pretty good and besides, when you cover a song, you need to add your own

shit in so it doesn't sound "too original"

-------------------------------------------------------------------------

-------------------------------------------------------------------------

NOTE: ~ = Let Ring

one thing I like about this song is you have the option to rest or play

during a few parts of the song, its noted where you can rest or play,

personally I think it sounds better if you don't play.

Of Course it AIC so its tuned down but I hate retunning

for every song I play so I tab for " Standard Tunning "

-------------------------------------------------------------------------

-------------------------------------------------------------------------

intro

G-----------------------------------------------------|

D------------------------------------(10)(12)(11)(10)-|

A-(11)(11)-(11)(11)-(11)-(11)(11)(11)-----------------|(x11)

E-----------------------------------------------------|

G-------------------------------------------------|

D------------------------------------(10)(12)(11)-|

A-(11)(11)-(11)(11)-(11)-(11)(11)(11)-------------|

E-------------------------------------------------|

" you were always so far away "

G--------------------------|---------------------------|

D----------------4---------|----------------4----------|

A----------2-4-6---64------|----------2-4-6---6-4------|

E-0~--2-4-------------4-22-|-44-44-44------------------|

G--------------------------|--------------------------|

D-------------------4------|---------------4664-------|

A-------------2-4-6---64---|---------2-4-6------64----|

E-0-0-2-2--4-------------4-|-2-2--4----------------42-|

G-----------------------|

D----------------64-----|

A--------------------64-|(x2)

E-44--44--4--444--------|

G|----|

D|----|

A|----|

E|-4~-| then REST or ||

\/

play this really quietly

G-----------------------------------------------------|

D------------------------------------(10)(12)(11)(10)-|

A-(11)(11)-(11)(11)-(11)-(11)(11)(11)-----------------|(x7)

E-----------------------------------------------------|

G-------------------------------------------------|

D------------------------------------(10)(12)(11)-|

A-(11)(11)-(11)(11)-(11)-(11)(11)(11)-------------|

E-------------------------------------------------|

" you were always so far away "

G--------------------------|--------------------------|

D----------------4---------|----------------4---------|

A----------2-4-6---64------|----------2-4-6---64------|

E-0~--2-4-------------4-22-|-44-44-44-----------------|

G--------------------------|--------------------------|

D-------------------4------|---------------4664-------|

A-------------2-4-6---64---|---------2-4-6------64----|

E-0-0-2-2--4-------------4-|-2-2--4----------------42-|

G-----------------------|

D----------------64-----|

A--------------------64-|(x2)

E-44--44--4--444--------|

G--------------------------|--------------------------|

D----------------4664------|------------------64------|

A----------2-4-6------64---|---------------------64---|

E-0-0-2-4----------------4-|-44--44--4-4--444-------4-|

G-------------------------|--------------------------|

D-------------------4-----|---------------4664-------|

A-------------2-4-6---64--|---------2-4-6------64----|

E-0-0-2-2-4-------------4-|-2-2-4----------------42-|

G-----------------------|

D----------------64-----|

A--------------------64-|(x2)

E-44--44--4--444--------|

G|----|

D|----|

A|----|

E|-4~-| then REST or ||

\/

play this really quietly

G-----------------------------------------------------|

D------------------------------------(10)(12)(11)(10)-|

A-(11)(11)-(11)(11)-(11)-(11)(11)(11)-----------------|(x4)

E-----------------------------------------------------|

G-------------------------------------------------|

D------------------------------------(10)(12)(11)-|

A-(11)(11)-(11)(11)-(11)-(11)(11)(11)-------------|

E-------------------------------------------------|

" you were always so far away "

G--------------------------|--------------------------|

D----------------4---------|----------------4---------|

A----------2-4-6---64------|----------2-4-6---64------|

E-0~--2-4-------------4-22-|-44-44-44-----------------|

G--------------------------|--------------------------|

D-------------------4------|---------------4664-------|

A-------------2-4-6---64---|---------2-4-6------64----|

E-0-0-2-2--4-------------4-|-2-2--4----------------42-|

G-----------------------|

D----------------64-----|

A--------------------64-|(x2)

E-44--44--4--444--------|

G|----|

D|----|

A|----|

E|-4~-| then REST or ||

\/

play this really quietly

G-----------------------------------------------------|

D------------------------------------(10)(12)(11)(10)-|

A-(11)(11)-(11)(11)-(11)-(11)(11)(11)-----------------|(x2)

E-----------------------------------------------------|

G------------------------------------------------------|

D------------------------------------(10)(12)(11)------|

A-(11)(11)-(11)(11)-(11)-(11)(11)(11)------------(11)~-|

E------------------------------------------------------|

Get this song at:  amazon.com sheetmusicplus.com

Share your thoughts

0 Comments found